ISO-10303-21;
HEADER;
FILE_DESCRIPTION(('STEP AP214'),'1');
FILE_NAME('607548348-000-00-E43.stp','2021-04-29T13:08:32',(' '),(' '),'Spatial InterOp 3D',' ',' ');
FILE_SCHEMA(('AUTOMOTIVE_DESIGN { 1 0 10303 214 1 1 1 1 }'));
ENDSEC;
DATA;
#1=MECHANICAL_DESIGN_GEOMETRIC_PRESENTATION_REPRESENTATION(' ',(#12,#13,#14,#15,#16,#17,#18,#19,#20,#21,#22,#23,#24,#25,#26),#8);
#2=PRODUCT_DEFINITION_CONTEXT('',#27,'design');
#3=APPLICATION_PROTOCOL_DEFINITION('INTERNATIONAL STANDARD','automotive_design',1994,#27);
#4=PRODUCT_CATEGORY_RELATIONSHIP('NONE','NONE',#28,#29);
#5=SHAPE_DEFINITION_REPRESENTATION(#30,#31);
#6=SHAPE_DEFINITION_REPRESENTATION(#30,#32);
#7=SHAPE_DEFINITION_REPRESENTATION(#30,#33);
#8= (GEOMETRIC_REPRESENTATION_CONTEXT(3)GLOBAL_UNCERTAINTY_ASSIGNED_CONTEXT((#36))GLOBAL_UNIT_ASSIGNED_CONTEXT((#38,#39,#40))REPRESENTATION_CONTEXT('NONE','WORKSPACE'));
#12=STYLED_ITEM('',(#42),#43);
#13=STYLED_ITEM('',(#44),#45);
#14=STYLED_ITEM('',(#46),#47);
#15=STYLED_ITEM('',(#48),#49);
#16=STYLED_ITEM('',(#50),#51);
#17=STYLED_ITEM('',(#52),#53);
#18=STYLED_ITEM('',(#54),#55);
#19=STYLED_ITEM('',(#56),#57);
#20=STYLED_ITEM('',(#58),#59);
#21=STYLED_ITEM('',(#60),#61);
#22=STYLED_ITEM('',(#62),#63);
#23=STYLED_ITEM('',(#64),#65);
#24=STYLED_ITEM('',(#66),#67);
#25=STYLED_ITEM('',(#68),#69);
#26=STYLED_ITEM('',(#70),#71);
#27=APPLICATION_CONTEXT(' ');
#28=PRODUCT_CATEGORY('part','NONE');
#29=PRODUCT_RELATED_PRODUCT_CATEGORY('detail',' ',(#72));
#30=PRODUCT_DEFINITION_SHAPE('NONE','NONE',#73);
#31=ADVANCED_BREP_SHAPE_REPRESENTATION('1',(#74,#75),#8);
#32=ADVANCED_BREP_SHAPE_REPRESENTATION('2',(#76,#77),#8);
#33=GEOMETRICALLY_BOUNDED_SURFACE_SHAPE_REPRESENTATION('3',(#78,#79),#8);
#36=UNCERTAINTY_MEASURE_WITH_UNIT(LENGTH_MEASURE(1.0E-06),#38,'','');
#38= (CONVERSION_BASED_UNIT('MILLIMETRE',#82)LENGTH_UNIT()NAMED_UNIT(#85));
#39= (NAMED_UNIT(#87)PLANE_ANGLE_UNIT()SI_UNIT($,.RADIAN.));
#40= (NAMED_UNIT(#87)SOLID_ANGLE_UNIT()SI_UNIT($,.STERADIAN.));
#42=PRESENTATION_STYLE_ASSIGNMENT((#93));
#43=COMPOSITE_CURVE('',(#94),.U.);
#44=PRESENTATION_STYLE_ASSIGNMENT((#95));
#45=COMPOSITE_CURVE('',(#96,#97,#98,#99,#100,#101),.U.);
#46=PRESENTATION_STYLE_ASSIGNMENT((#102));
#47=ADVANCED_FACE('',(#103),#104,.T.);
#48=PRESENTATION_STYLE_ASSIGNMENT((#105));
#49=ADVANCED_FACE('',(#106),#107,.T.);
#50=PRESENTATION_STYLE_ASSIGNMENT((#108));
#51=ADVANCED_FACE('',(#109),#110,.T.);
#52=PRESENTATION_STYLE_ASSIGNMENT((#111));
#53=ADVANCED_FACE('',(#112),#113,.T.);
#54=PRESENTATION_STYLE_ASSIGNMENT((#114));
#55=ADVANCED_FACE('',(#115),#116,.T.);
#56=PRESENTATION_STYLE_ASSIGNMENT((#117));
#57=ADVANCED_FACE('',(#118),#119,.T.);
#58=PRESENTATION_STYLE_ASSIGNMENT((#120));
#59=COMPOSITE_CURVE('',(#121,#122,#123,#124,#125),.U.);
#60=PRESENTATION_STYLE_ASSIGNMENT((#126));
#61=ADVANCED_FACE('',(#127),#128,.T.);
#62=PRESENTATION_STYLE_ASSIGNMENT((#129));
#63=ADVANCED_FACE('',(#130),#131,.T.);
#64=PRESENTATION_STYLE_ASSIGNMENT((#132));
#65=ADVANCED_FACE('',(#133),#134,.T.);
#66=PRESENTATION_STYLE_ASSIGNMENT((#135));
#67=ADVANCED_FACE('',(#136),#137,.T.);
#68=PRESENTATION_STYLE_ASSIGNMENT((#138));
#69=ADVANCED_FACE('',(#139),#140,.T.);
#70=PRESENTATION_STYLE_ASSIGNMENT((#141));
#71=ADVANCED_FACE('',(#142),#143,.T.);
#72=PRODUCT('1','','PART--DESC',(#144));
#73=PRODUCT_DEFINITION('','NONE',#145,#2);
#74=MANIFOLD_SOLID_BREP('1',#146);
#75=AXIS2_PLACEMENT_3D('',#147,#148,#149);
#76=MANIFOLD_SOLID_BREP('2',#150);
#77=AXIS2_PLACEMENT_3D('',#151,#152,#153);
#78=GEOMETRIC_SET('3',(#43,#45,#59));
#79=AXIS2_PLACEMENT_3D('',#154,#155,#156);
#82=LENGTH_MEASURE_WITH_UNIT(LENGTH_MEASURE(1.0),#157);
#85=DIMENSIONAL_EXPONENTS(1.0,0.0,0.0,0.0,0.0,0.0,0.0);
#87=DIMENSIONAL_EXPONENTS(0.0,0.0,0.0,0.0,0.0,0.0,0.0);
#93=CURVE_STYLE('',#158,POSITIVE_LENGTH_MEASURE(1.0E-06),#159);
#94=COMPOSITE_CURVE_SEGMENT(.CONTINUOUS.,.T.,#160);
#95=CURVE_STYLE('',#161,POSITIVE_LENGTH_MEASURE(1.0E-06),#162);
#96=COMPOSITE_CURVE_SEGMENT(.CONTINUOUS.,.T.,#163);
#97=COMPOSITE_CURVE_SEGMENT(.CONTINUOUS.,.T.,#164);
#98=COMPOSITE_CURVE_SEGMENT(.CONTINUOUS.,.T.,#165);
#99=COMPOSITE_CURVE_SEGMENT(.CONTINUOUS.,.T.,#166);
#100=COMPOSITE_CURVE_SEGMENT(.CONTINUOUS.,.T.,#167);
#101=COMPOSITE_CURVE_SEGMENT(.CONTINUOUS.,.T.,#168);
#102=SURFACE_STYLE_USAGE(.BOTH.,#169);
#103=FACE_OUTER_BOUND('',#170,.T.);
#104=CYLINDRICAL_SURFACE('',#171,6.00000000000006);
#105=SURFACE_STYLE_USAGE(.BOTH.,#172);
#106=FACE_OUTER_BOUND('',#173,.T.);
#107=CONICAL_SURFACE('',#174,5.50000000000001,0.785398163397462);
#108=SURFACE_STYLE_USAGE(.BOTH.,#175);
#109=FACE_OUTER_BOUND('',#176,.T.);
#110=CONICAL_SURFACE('',#177,5.50000000000001,0.785398163397462);
#111=SURFACE_STYLE_USAGE(.BOTH.,#178);
#112=FACE_OUTER_BOUND('',#179,.T.);
#113=CYLINDRICAL_SURFACE('',#180,6.00000000000006);
#114=SURFACE_STYLE_USAGE(.BOTH.,#181);
#115=FACE_OUTER_BOUND('',#182,.T.);
#116=PLANE('',#183);
#117=SURFACE_STYLE_USAGE(.BOTH.,#184);
#118=FACE_OUTER_BOUND('',#185,.T.);
#119=PLANE('',#186);
#120=CURVE_STYLE('',#187,POSITIVE_LENGTH_MEASURE(1.0E-06),#188);
#121=COMPOSITE_CURVE_SEGMENT(.CONTINUOUS.,.T.,#189);
#122=COMPOSITE_CURVE_SEGMENT(.CONTINUOUS.,.T.,#190);
#123=COMPOSITE_CURVE_SEGMENT(.CONTINUOUS.,.T.,#191);
#124=COMPOSITE_CURVE_SEGMENT(.CONTINUOUS.,.T.,#192);
#125=COMPOSITE_CURVE_SEGMENT(.CONTINUOUS.,.T.,#193);
#126=SURFACE_STYLE_USAGE(.BOTH.,#194);
#127=FACE_OUTER_BOUND('',#195,.T.);
#128=CONICAL_SURFACE('',#196,5.88,0.785398163397567);
#129=SURFACE_STYLE_USAGE(.BOTH.,#197);
#130=FACE_OUTER_BOUND('',#198,.T.);
#131=CYLINDRICAL_SURFACE('',#199,6.00000000000009);
#132=SURFACE_STYLE_USAGE(.BOTH.,#200);
#133=FACE_OUTER_BOUND('',#201,.T.);
#134=PLANE('',#202);
#135=SURFACE_STYLE_USAGE(.BOTH.,#203);
#136=FACE_OUTER_BOUND('',#204,.T.);
#137=PLANE('',#205);
#138=SURFACE_STYLE_USAGE(.BOTH.,#206);
#139=FACE_OUTER_BOUND('',#207,.T.);
#140=CYLINDRICAL_SURFACE('',#208,6.00000000000009);
#141=SURFACE_STYLE_USAGE(.BOTH.,#209);
#142=FACE_OUTER_BOUND('',#210,.T.);
#143=CONICAL_SURFACE('',#211,5.88,0.785398163397567);
#144=PRODUCT_CONTEXT('',#27,'mechanical');
#145=PRODUCT_DEFINITION_FORMATION_WITH_SPECIFIED_SOURCE(' ','NONE',#72,.NOT_KNOWN.);
#146=CLOSED_SHELL('',(#47,#49,#51,#53,#55,#57));
#147=CARTESIAN_POINT('',(0.0,0.0,0.0));
#148=DIRECTION('',(0.0,0.0,1.0));
#149=DIRECTION('',(1.0,0.0,0.0));
#150=CLOSED_SHELL('',(#61,#63,#65,#67,#69,#71));
#151=CARTESIAN_POINT('',(0.0,0.0,0.0));
#152=DIRECTION('',(0.0,0.0,1.0));
#153=DIRECTION('',(1.0,0.0,0.0));
#154=CARTESIAN_POINT('',(0.0,0.0,0.0));
#155=DIRECTION('',(0.0,0.0,1.0));
#156=DIRECTION('',(1.0,0.0,0.0));
#157= (NAMED_UNIT(#85)LENGTH_UNIT()SI_UNIT(.MILLI.,.METRE.));
#158=DRAUGHTING_PRE_DEFINED_CURVE_FONT('continuous');
#159=COLOUR_RGB('',0.0,1.0,0.0);
#160=TRIMMED_CURVE('',#213,(PARAMETER_VALUE(0.0)),(PARAMETER_VALUE(6.0)),.T.,.UNSPECIFIED.);
#161=DRAUGHTING_PRE_DEFINED_CURVE_FONT('continuous');
#162=COLOUR_RGB('',0.498039215803146,0.498039215803146,0.498039215803146);
#163=TRIMMED_CURVE('',#214,(PARAMETER_VALUE(0.0)),(PARAMETER_VALUE(52.0)),.T.,.UNSPECIFIED.);
#164=TRIMMED_CURVE('',#215,(PARAMETER_VALUE(0.0)),(PARAMETER_VALUE(6.00000000000006)),.T.,.UNSPECIFIED.);
#165=TRIMMED_CURVE('',#216,(PARAMETER_VALUE(0.0)),(PARAMETER_VALUE(7.0)),.T.,.UNSPECIFIED.);
#166=TRIMMED_CURVE('',#217,(PARAMETER_VALUE(0.0)),(PARAMETER_VALUE(44.0)),.T.,.UNSPECIFIED.);
#167=TRIMMED_CURVE('',#218,(PARAMETER_VALUE(0.0)),(PARAMETER_VALUE(1.41421356237312)),.T.,.UNSPECIFIED.);
#168=TRIMMED_CURVE('',#219,(PARAMETER_VALUE(0.0)),(PARAMETER_VALUE(5.0)),.T.,.UNSPECIFIED.);
#169=SURFACE_SIDE_STYLE('',(#220));
#170=EDGE_LOOP('',(#221,#222,#223,#224));
#171=AXIS2_PLACEMENT_3D('',#225,#226,#227);
#172=SURFACE_SIDE_STYLE('',(#228));
#173=EDGE_LOOP('',(#229,#230,#231,#232));
#174=AXIS2_PLACEMENT_3D('',#233,#234,#235);
#175=SURFACE_SIDE_STYLE('',(#236));
#176=EDGE_LOOP('',(#237,#238,#239,#240));
#177=AXIS2_PLACEMENT_3D('',#241,#242,#243);
#178=SURFACE_SIDE_STYLE('',(#244));
#179=EDGE_LOOP('',(#245,#246,#247,#248));
#180=AXIS2_PLACEMENT_3D('',#249,#250,#251);
#181=SURFACE_SIDE_STYLE('',(#252));
#182=EDGE_LOOP('',(#253,#254));
#183=AXIS2_PLACEMENT_3D('',#255,#256,#257);
#184=SURFACE_SIDE_STYLE('',(#258));
#185=EDGE_LOOP('',(#259,#260));
#186=AXIS2_PLACEMENT_3D('',#261,#262,#263);
#187=DRAUGHTING_PRE_DEFINED_CURVE_FONT('continuous');
#188=COLOUR_RGB('',0.0,0.0,1.0);
#189=TRIMMED_CURVE('',#264,(PARAMETER_VALUE(0.0)),(PARAMETER_VALUE(59.7599999999998)),.T.,.UNSPECIFIED.);
#190=TRIMMED_CURVE('',#265,(PARAMETER_VALUE(0.0)),(PARAMETER_VALUE(6.00000000000006)),.T.,.UNSPECIFIED.);
#191=TRIMMED_CURVE('',#266,(PARAMETER_VALUE(0.0)),(PARAMETER_VALUE(60.0)),.T.,.UNSPECIFIED.);
#192=TRIMMED_CURVE('',#267,(PARAMETER_VALUE(0.0)),(PARAMETER_VALUE(5.75999999999988)),.T.,.UNSPECIFIED.);
#193=TRIMMED_CURVE('',#268,(PARAMETER_VALUE(0.0)),(PARAMETER_VALUE(0.339411254969757)),.T.,.UNSPECIFIED.);
#194=SURFACE_SIDE_STYLE('',(#269));
#195=EDGE_LOOP('',(#270,#271,#272,#273));
#196=AXIS2_PLACEMENT_3D('',#274,#275,#276);
#197=SURFACE_SIDE_STYLE('',(#277));
#198=EDGE_LOOP('',(#278,#279,#280,#281));
#199=AXIS2_PLACEMENT_3D('',#282,#283,#284);
#200=SURFACE_SIDE_STYLE('',(#285));
#201=EDGE_LOOP('',(#286,#287));
#202=AXIS2_PLACEMENT_3D('',#288,#289,#290);
#203=SURFACE_SIDE_STYLE('',(#291));
#204=EDGE_LOOP('',(#292,#293));
#205=AXIS2_PLACEMENT_3D('',#294,#295,#296);
#206=SURFACE_SIDE_STYLE('',(#297));
#207=EDGE_LOOP('',(#298,#299,#300,#301));
#208=AXIS2_PLACEMENT_3D('',#302,#303,#304);
#209=SURFACE_SIDE_STYLE('',(#305));
#210=EDGE_LOOP('',(#306,#307,#308,#309));
#211=AXIS2_PLACEMENT_3D('',#310,#311,#312);
#213=LINE('',#313,#314);
#214=LINE('',#315,#316);
#215=LINE('',#317,#318);
#216=LINE('',#319,#320);
#217=LINE('',#321,#322);
#218=LINE('',#323,#324);
#219=LINE('',#325,#326);
#220=SURFACE_STYLE_FILL_AREA(#327);
#221=ORIENTED_EDGE('',*,*,#328,.F.);
#222=ORIENTED_EDGE('',*,*,#329,.T.);
#223=ORIENTED_EDGE('',*,*,#330,.F.);
#224=ORIENTED_EDGE('',*,*,#331,.F.);
#225=CARTESIAN_POINT('',(-1.1327982892113E-15,0.0,18.5));
#226=DIRECTION('',(6.12323399573677E-17,0.0,-1.0));
#227=DIRECTION('',(0.0,1.0,0.0));
#228=SURFACE_STYLE_FILL_AREA(#332);
#229=ORIENTED_EDGE('',*,*,#333,.F.);
#230=ORIENTED_EDGE('',*,*,#334,.T.);
#231=ORIENTED_EDGE('',*,*,#335,.F.);
#232=ORIENTED_EDGE('',*,*,#329,.F.);
#233=CARTESIAN_POINT('',(-2.72483912810286E-15,0.0,44.5));
#234=DIRECTION('',(6.12323399573677E-17,-0.0,-1.0));
#235=DIRECTION('',(0.0,1.0,0.0));
#236=SURFACE_STYLE_FILL_AREA(#336);
#237=ORIENTED_EDGE('',*,*,#333,.T.);
#238=ORIENTED_EDGE('',*,*,#337,.F.);
#239=ORIENTED_EDGE('',*,*,#335,.T.);
#240=ORIENTED_EDGE('',*,*,#338,.T.);
#241=CARTESIAN_POINT('',(-2.72483912810286E-15,0.0,44.5));
#242=DIRECTION('',(6.12323399573677E-17,-0.0,-1.0));
#243=DIRECTION('',(0.0,1.0,0.0));
#244=SURFACE_STYLE_FILL_AREA(#339);
#245=ORIENTED_EDGE('',*,*,#328,.T.);
#246=ORIENTED_EDGE('',*,*,#340,.F.);
#247=ORIENTED_EDGE('',*,*,#330,.T.);
#248=ORIENTED_EDGE('',*,*,#337,.T.);
#249=CARTESIAN_POINT('',(-1.1327982892113E-15,0.0,18.5));
#250=DIRECTION('',(6.12323399573677E-17,0.0,-1.0));
#251=DIRECTION('',(0.0,1.0,0.0));
#252=SURFACE_STYLE_FILL_AREA(#341);
#253=ORIENTED_EDGE('',*,*,#331,.T.);
#254=ORIENTED_EDGE('',*,*,#340,.T.);
#255=CARTESIAN_POINT('',(4.28626379701573E-16,3.00000000000006,-7.0));
#256=DIRECTION('',(6.12323399573677E-17,0.0,-1.0));
#257=DIRECTION('',(0.0,1.0,0.0));
#258=SURFACE_STYLE_FILL_AREA(#342);
#259=ORIENTED_EDGE('',*,*,#334,.F.);
#260=ORIENTED_EDGE('',*,*,#338,.F.);
#261=CARTESIAN_POINT('',(-2.75545529808154E-15,2.5,45.0));
#262=DIRECTION('',(-6.12323399573677E-17,0.0,1.0));
#263=DIRECTION('',(0.0,-1.0,0.0));
#264=LINE('',#343,#344);
#265=LINE('',#345,#346);
#266=LINE('',#347,#348);
#267=LINE('',#349,#350);
#268=LINE('',#351,#352);
#269=SURFACE_STYLE_FILL_AREA(#353);
#270=ORIENTED_EDGE('',*,*,#354,.F.);
#271=ORIENTED_EDGE('',*,*,#355,.T.);
#272=ORIENTED_EDGE('',*,*,#356,.F.);
#273=ORIENTED_EDGE('',*,*,#357,.F.);
#274=CARTESIAN_POINT('',(4.09521889634874E-15,0.0,-66.8799999999998));
#275=DIRECTION('',(-6.12323399573677E-17,-0.0,1.0));
#276=DIRECTION('',(0.0,1.0,0.0));
#277=SURFACE_STYLE_FILL_AREA(#358);
#278=ORIENTED_EDGE('',*,*,#359,.F.);
#279=ORIENTED_EDGE('',*,*,#360,.T.);
#280=ORIENTED_EDGE('',*,*,#361,.F.);
#281=ORIENTED_EDGE('',*,*,#355,.F.);
#282=CARTESIAN_POINT('',(2.25824869762771E-15,0.0,-36.8799999999999));
#283=DIRECTION('',(6.12323399573676E-17,0.0,-1.0));
#284=DIRECTION('',(0.0,1.0,0.0));
#285=SURFACE_STYLE_FILL_AREA(#362);
#286=ORIENTED_EDGE('',*,*,#357,.T.);
#287=ORIENTED_EDGE('',*,*,#363,.T.);
#288=CARTESIAN_POINT('',(4.10256677714363E-15,2.87999999999997,-66.9999999999999));
#289=DIRECTION('',(6.12323399573677E-17,1.97372982155588E-14,-1.0));
#290=DIRECTION('',(-1.20856095417504E-30,1.0,1.97372982155588E-14));
#291=SURFACE_STYLE_FILL_AREA(#364);
#292=ORIENTED_EDGE('',*,*,#360,.F.);
#293=ORIENTED_EDGE('',*,*,#365,.F.);
#294=CARTESIAN_POINT('',(4.28626379701573E-16,3.00000000000006,-7.0));
#295=DIRECTION('',(-6.12323399573677E-17,0.0,1.0));
#296=DIRECTION('',(0.0,-1.0,0.0));
#297=SURFACE_STYLE_FILL_AREA(#366);
#298=ORIENTED_EDGE('',*,*,#359,.T.);
#299=ORIENTED_EDGE('',*,*,#367,.F.);
#300=ORIENTED_EDGE('',*,*,#361,.T.);
#301=ORIENTED_EDGE('',*,*,#365,.T.);
#302=CARTESIAN_POINT('',(2.25824869762771E-15,0.0,-36.8799999999999));
#303=DIRECTION('',(6.12323399573676E-17,0.0,-1.0));
#304=DIRECTION('',(0.0,1.0,0.0));
#305=SURFACE_STYLE_FILL_AREA(#368);
#306=ORIENTED_EDGE('',*,*,#354,.T.);
#307=ORIENTED_EDGE('',*,*,#363,.F.);
#308=ORIENTED_EDGE('',*,*,#356,.T.);
#309=ORIENTED_EDGE('',*,*,#367,.T.);
#310=CARTESIAN_POINT('',(4.09521889634874E-15,0.0,-66.8799999999998));
#311=DIRECTION('',(-6.12323399573677E-17,-0.0,1.0));
#312=DIRECTION('',(0.0,1.0,0.0));
#313=CARTESIAN_POINT('',(0.0,6.00000000000003,0.0));
#314=VECTOR('',#369,1.0);
#315=CARTESIAN_POINT('',(-2.75545529808154E-15,0.0,45.0));
#316=VECTOR('',#370,1.0);
#317=CARTESIAN_POINT('',(4.28626379701574E-16,2.8421709430404E-14,-7.0));
#318=VECTOR('',#371,1.0);
#319=CARTESIAN_POINT('',(4.28626379701574E-16,6.00000000000009,-7.0));
#320=VECTOR('',#372,1.0);
#321=CARTESIAN_POINT('',(0.0,6.00000000000009,0.0));
#322=VECTOR('',#373,1.0);
#323=CARTESIAN_POINT('',(-2.69422295812418E-15,6.00000000000003,44.0));
#324=VECTOR('',#374,1.0);
#325=CARTESIAN_POINT('',(-2.75545529808154E-15,5.0,45.0));
#326=VECTOR('',#375,1.0);
#327=FILL_AREA_STYLE('',(#376));
#328=EDGE_CURVE('',#377,#378,#379,.T.);
#329=EDGE_CURVE('',#377,#380,#381,.T.);
#330=EDGE_CURVE('',#382,#380,#383,.T.);
#331=EDGE_CURVE('',#378,#382,#384,.T.);
#332=FILL_AREA_STYLE('',(#385));
#333=EDGE_CURVE('',#386,#377,#387,.T.);
#334=EDGE_CURVE('',#386,#388,#389,.T.);
#335=EDGE_CURVE('',#380,#388,#390,.T.);
#336=FILL_AREA_STYLE('',(#391));
#337=EDGE_CURVE('',#380,#377,#392,.T.);
#338=EDGE_CURVE('',#388,#386,#393,.T.);
#339=FILL_AREA_STYLE('',(#394));
#340=EDGE_CURVE('',#382,#378,#395,.T.);
#341=FILL_AREA_STYLE('',(#396));
#342=FILL_AREA_STYLE('',(#397));
#343=CARTESIAN_POINT('',(4.08787101555385E-15,6.00000000000009,-66.7599999999998));
#344=VECTOR('',#398,1.0);
#345=CARTESIAN_POINT('',(4.28626379701574E-16,6.00000000000009,-7.0));
#346=VECTOR('',#399,1.0);
#347=CARTESIAN_POINT('',(4.28626379701574E-16,2.8421709430404E-14,-7.0));
#348=VECTOR('',#400,1.0);
#349=CARTESIAN_POINT('',(4.10256677714363E-15,2.8421709430404E-14,-67.0));
#350=VECTOR('',#401,1.0);
#351=CARTESIAN_POINT('',(4.10256677714363E-15,5.75999999999991,-66.9999999999999));
#352=VECTOR('',#402,1.0);
#353=FILL_AREA_STYLE('',(#403));
#354=EDGE_CURVE('',#404,#405,#406,.T.);
#355=EDGE_CURVE('',#404,#407,#408,.T.);
#356=EDGE_CURVE('',#409,#407,#410,.T.);
#357=EDGE_CURVE('',#405,#409,#411,.T.);
#358=FILL_AREA_STYLE('',(#412));
#359=EDGE_CURVE('',#413,#404,#414,.T.);
#360=EDGE_CURVE('',#413,#415,#416,.T.);
#361=EDGE_CURVE('',#407,#415,#417,.T.);
#362=FILL_AREA_STYLE('',(#418));
#363=EDGE_CURVE('',#409,#405,#419,.T.);
#364=FILL_AREA_STYLE('',(#420));
#365=EDGE_CURVE('',#415,#413,#421,.T.);
#366=FILL_AREA_STYLE('',(#422));
#367=EDGE_CURVE('',#407,#404,#423,.T.);
#368=FILL_AREA_STYLE('',(#424));
#369=DIRECTION('',(0.0,-1.0,0.0));
#370=DIRECTION('',(6.12323399573677E-17,5.46571335200077E-16,-1.0));
#371=DIRECTION('',(0.0,1.0,0.0));
#372=DIRECTION('',(-6.12323399573677E-17,0.0,1.0));
#373=DIRECTION('',(-6.12323399573677E-17,-1.29189588320018E-15,1.0));
#374=DIRECTION('',(-4.3297802811774E-17,-0.707106781186558,0.707106781186537));
#375=DIRECTION('',(0.0,-1.0,0.0));
#376=FILL_AREA_STYLE_COLOUR('',#425);
#377=VERTEX_POINT('',#426);
#378=VERTEX_POINT('',#427);
#379=LINE('',#428,#429);
#380=VERTEX_POINT('',#430);
#381=CIRCLE('',#431,6.00000000000003);
#382=VERTEX_POINT('',#432);
#383=LINE('',#433,#434);
#384=CIRCLE('',#435,6.00000000000009);
#385=FILL_AREA_STYLE_COLOUR('',#436);
#386=VERTEX_POINT('',#437);
#387=LINE('',#438,#439);
#388=VERTEX_POINT('',#440);
#389=CIRCLE('',#441,5.0);
#390=LINE('',#442,#443);
#391=FILL_AREA_STYLE_COLOUR('',#444);
#392=CIRCLE('',#445,6.00000000000003);
#393=CIRCLE('',#446,5.0);
#394=FILL_AREA_STYLE_COLOUR('',#447);
#395=CIRCLE('',#448,6.00000000000009);
#396=FILL_AREA_STYLE_COLOUR('',#449);
#397=FILL_AREA_STYLE_COLOUR('',#450);
#398=DIRECTION('',(-6.12323399573676E-17,0.0,1.0));
#399=DIRECTION('',(0.0,-1.0,0.0));
#400=DIRECTION('',(6.12323399573676E-17,0.0,-1.0));
#401=DIRECTION('',(-1.09564014614032E-30,1.0,1.97372982155588E-14));
#402=DIRECTION('',(-4.32978028117714E-17,0.707106781186631,0.707106781186464));
#403=FILL_AREA_STYLE_COLOUR('',#451);
#404=VERTEX_POINT('',#452);
#405=VERTEX_POINT('',#453);
#406=LINE('',#454,#455);
#407=VERTEX_POINT('',#456);
#408=CIRCLE('',#457,6.00000000000009);
#409=VERTEX_POINT('',#458);
#410=LINE('',#459,#460);
#411=CIRCLE('',#461,5.75999999999991);
#412=FILL_AREA_STYLE_COLOUR('',#462);
#413=VERTEX_POINT('',#463);
#414=LINE('',#464,#465);
#415=VERTEX_POINT('',#466);
#416=CIRCLE('',#467,6.00000000000009);
#417=LINE('',#468,#469);
#418=FILL_AREA_STYLE_COLOUR('',#470);
#419=CIRCLE('',#471,5.75999999999991);
#420=FILL_AREA_STYLE_COLOUR('',#472);
#421=CIRCLE('',#473,6.00000000000009);
#422=FILL_AREA_STYLE_COLOUR('',#474);
#423=CIRCLE('',#475,6.00000000000009);
#424=FILL_AREA_STYLE_COLOUR('',#476);
#425=COLOUR_RGB('',0.498039215803146,0.498039215803146,0.498039215803146);
#426=CARTESIAN_POINT('',(-2.69422295812418E-15,6.00000000000003,44.0));
#427=CARTESIAN_POINT('',(4.28626379701573E-16,6.00000000000009,-7.0));
#428=CARTESIAN_POINT('',(-1.86758636869972E-15,6.00000000000006,18.5));
#429=VECTOR('',#477,1.0);
#430=CARTESIAN_POINT('',(-1.95943487863576E-15,-6.00000000000003,44.0));
#431=AXIS2_PLACEMENT_3D('',#478,#479,#480);
#432=CARTESIAN_POINT('',(1.16341445919E-15,-6.00000000000009,-7.0));
#433=CARTESIAN_POINT('',(-3.98010209722883E-16,-6.00000000000006,18.5));
#434=VECTOR('',#481,1.0);
#435=AXIS2_PLACEMENT_3D('',#482,#483,#484);
#436=COLOUR_RGB('',0.498039215803146,0.498039215803146,0.498039215803146);
#437=CARTESIAN_POINT('',(-2.75545529808154E-15,5.0,45.0));
#438=CARTESIAN_POINT('',(-3.39839486763391E-15,5.50000000000001,44.5));
#439=VECTOR('',#485,1.0);
#440=CARTESIAN_POINT('',(-2.14313189850787E-15,-5.0,45.0));
#441=AXIS2_PLACEMENT_3D('',#486,#487,#488);
#442=CARTESIAN_POINT('',(-2.05128338857181E-15,-5.50000000000001,44.5));
#443=VECTOR('',#489,1.0);
#444=COLOUR_RGB('',0.498039215803146,0.498039215803146,0.498039215803146);
#445=AXIS2_PLACEMENT_3D('',#490,#491,#492);
#446=AXIS2_PLACEMENT_3D('',#493,#494,#495);
#447=COLOUR_RGB('',0.498039215803146,0.498039215803146,0.498039215803146);
#448=AXIS2_PLACEMENT_3D('',#496,#497,#498);
#449=COLOUR_RGB('',0.498039215803146,0.498039215803146,0.498039215803146);
#450=COLOUR_RGB('',0.498039215803146,0.498039215803146,0.498039215803146);
#451=COLOUR_RGB('',0.800000011920929,0.800000011920929,0.800000011920929);
#452=CARTESIAN_POINT('',(4.08787101555385E-15,6.00000000000009,-66.7599999999998));
#453=CARTESIAN_POINT('',(4.10256677714363E-15,5.75999999999991,-66.9999999999999));
#454=CARTESIAN_POINT('',(3.3751265784501E-15,5.87999999999999,-66.8799999999998));
#455=VECTOR('',#499,1.0);
#456=CARTESIAN_POINT('',(4.82265909504227E-15,-6.00000000000009,-66.7599999999998));
#457=AXIS2_PLACEMENT_3D('',#500,#501,#502);
#458=CARTESIAN_POINT('',(4.80796333345249E-15,-5.7599999999999,-66.9999999999999));
#459=CARTESIAN_POINT('',(4.81531121424738E-15,-5.87999999999999,-66.8799999999998));
#460=VECTOR('',#503,1.0);
#461=AXIS2_PLACEMENT_3D('',#504,#505,#506);
#462=COLOUR_RGB('',0.800000011920929,0.800000011920929,0.800000011920929);
#463=CARTESIAN_POINT('',(4.28626379701573E-16,6.00000000000009,-7.0));
#464=CARTESIAN_POINT('',(1.52346061813929E-15,6.00000000000009,-36.8799999999999));
#465=VECTOR('',#507,1.0);
#466=CARTESIAN_POINT('',(1.16341445919E-15,-6.00000000000009,-7.0));
#467=AXIS2_PLACEMENT_3D('',#508,#509,#510);
#468=CARTESIAN_POINT('',(2.99303677711613E-15,-6.00000000000009,-36.8799999999999));
#469=VECTOR('',#511,1.0);
#470=COLOUR_RGB('',0.800000011920929,0.800000011920929,0.800000011920929);
#471=AXIS2_PLACEMENT_3D('',#512,#513,#514);
#472=COLOUR_RGB('',0.800000011920929,0.800000011920929,0.800000011920929);
#473=AXIS2_PLACEMENT_3D('',#515,#516,#517);
#474=COLOUR_RGB('',0.800000011920929,0.800000011920929,0.800000011920929);
#475=AXIS2_PLACEMENT_3D('',#518,#519,#520);
#476=COLOUR_RGB('',0.800000011920929,0.800000011920929,0.800000011920929);
#477=DIRECTION('',(6.12323399573677E-17,0.0,-1.0));
#478=CARTESIAN_POINT('',(-2.69422295812418E-15,0.0,44.0));
#479=DIRECTION('',(6.12323399573677E-17,0.0,-1.0));
#480=DIRECTION('',(0.0,1.0,0.0));
#481=DIRECTION('',(-6.12323399573677E-17,-0.0,1.0));
#482=CARTESIAN_POINT('',(4.28626379701573E-16,0.0,-7.0));
#483=DIRECTION('',(6.12323399573676E-17,0.0,-1.0));
#484=DIRECTION('',(0.0,1.0,0.0));
#485=DIRECTION('',(-4.32978028117765E-17,0.707106781186558,-0.707106781186537));
#486=CARTESIAN_POINT('',(-2.75545529808154E-15,0.0,45.0));
#487=DIRECTION('',(6.12323399573677E-17,0.0,-1.0));
#488=DIRECTION('',(0.0,1.0,0.0));
#489=DIRECTION('',(-1.29893408435325E-16,0.707106781186558,0.707106781186537));
#490=CARTESIAN_POINT('',(-2.69422295812418E-15,0.0,44.0));
#491=DIRECTION('',(6.12323399573677E-17,0.0,-1.0));
#492=DIRECTION('',(0.0,1.0,0.0));
#493=CARTESIAN_POINT('',(-2.75545529808154E-15,0.0,45.0));
#494=DIRECTION('',(6.12323399573677E-17,0.0,-1.0));
#495=DIRECTION('',(0.0,1.0,0.0));
#496=CARTESIAN_POINT('',(4.28626379701573E-16,0.0,-7.0));
#497=DIRECTION('',(6.12323399573676E-17,0.0,-1.0));
#498=DIRECTION('',(0.0,1.0,0.0));
#499=DIRECTION('',(1.29893408435329E-16,-0.707106781186631,-0.707106781186464));
#500=CARTESIAN_POINT('',(4.08787101555385E-15,0.0,-66.7599999999998));
#501=DIRECTION('',(6.12323399573676E-17,0.0,-1.0));
#502=DIRECTION('',(0.0,1.0,0.0));
#503=DIRECTION('',(4.32978028117901E-17,-0.707106781186631,0.707106781186464));
#504=CARTESIAN_POINT('',(4.10256677714363E-15,0.0,-66.9999999999999));
#505=DIRECTION('',(6.12323399573677E-17,0.0,-1.0));
#506=DIRECTION('',(0.0,1.0,0.0));
#507=DIRECTION('',(6.12323399573677E-17,0.0,-1.0));
#508=CARTESIAN_POINT('',(4.28626379701573E-16,0.0,-7.0));
#509=DIRECTION('',(6.12323399573676E-17,0.0,-1.0));
#510=DIRECTION('',(0.0,1.0,0.0));
#511=DIRECTION('',(-6.12323399573677E-17,-0.0,1.0));
#512=CARTESIAN_POINT('',(4.10256677714363E-15,0.0,-66.9999999999999));
#513=DIRECTION('',(6.12323399573677E-17,0.0,-1.0));
#514=DIRECTION('',(0.0,1.0,0.0));
#515=CARTESIAN_POINT('',(4.28626379701573E-16,0.0,-7.0));
#516=DIRECTION('',(6.12323399573676E-17,0.0,-1.0));
#517=DIRECTION('',(0.0,1.0,0.0));
#518=CARTESIAN_POINT('',(4.08787101555385E-15,0.0,-66.7599999999998));
#519=DIRECTION('',(6.12323399573676E-17,0.0,-1.0));
#520=DIRECTION('',(0.0,1.0,0.0));
#521=DIRECTION('',(0.0,0.0,1.0));
#522=DIRECTION('',(1.0,0.0,0.0));
#523=CARTESIAN_POINT('',(0.0,0.0,45.000000));
#524=AXIS2_PLACEMENT_3D('PCS', #523,#521,#522);
#525=CARTESIAN_POINT('',(0.0,0.0,0.000000));
#526=AXIS2_PLACEMENT_3D('MCS', #525,#521,#522);
#527=CARTESIAN_POINT('',(0.0,0.0,-67.000000));
#528=AXIS2_PLACEMENT_3D('CIP', #527,#521,#522);
ENDSEC;
END-ISO-10303-21;
