ISO-10303-21;
HEADER;
FILE_DESCRIPTION(('STEP AP214'),'1');
FILE_NAME('608025668-000-00-E43.stp','2023-12-05T07:48:30',(' '),(' '),'Spatial InterOp 3D',' ',' ');
FILE_SCHEMA(('AUTOMOTIVE_DESIGN { 1 0 10303 214 1 1 1 1 }'));
ENDSEC;
DATA;
#1=MECHANICAL_DESIGN_GEOMETRIC_PRESENTATION_REPRESENTATION(' ',(#12,#13,#14,#15,#16,#17,#18,#19,#20,#21,#22,#23,#24,#25,#26,#27,#28),#8);
#2=PRODUCT_DEFINITION_CONTEXT('',#29,'design');
#3=APPLICATION_PROTOCOL_DEFINITION('INTERNATIONAL STANDARD','automotive_design',1994,#29);
#4=PRODUCT_CATEGORY_RELATIONSHIP('NONE','NONE',#30,#31);
#5=SHAPE_DEFINITION_REPRESENTATION(#32,#33);
#6=SHAPE_DEFINITION_REPRESENTATION(#32,#34);
#7=SHAPE_DEFINITION_REPRESENTATION(#32,#35);
#8= (GEOMETRIC_REPRESENTATION_CONTEXT(3)GLOBAL_UNCERTAINTY_ASSIGNED_CONTEXT((#38))GLOBAL_UNIT_ASSIGNED_CONTEXT((#40,#41,#42))REPRESENTATION_CONTEXT('NONE','WORKSPACE'));
#12=STYLED_ITEM('',(#44),#45);
#13=STYLED_ITEM('',(#46),#47);
#14=STYLED_ITEM('',(#48),#49);
#15=STYLED_ITEM('',(#50),#51);
#16=STYLED_ITEM('',(#52),#53);
#17=STYLED_ITEM('',(#54),#55);
#18=STYLED_ITEM('',(#56),#57);
#19=STYLED_ITEM('',(#58),#59);
#20=STYLED_ITEM('',(#60),#61);
#21=STYLED_ITEM('',(#62),#63);
#22=STYLED_ITEM('',(#64),#65);
#23=STYLED_ITEM('',(#66),#67);
#24=STYLED_ITEM('',(#68),#69);
#25=STYLED_ITEM('',(#70),#71);
#26=STYLED_ITEM('',(#72),#73);
#27=STYLED_ITEM('',(#74),#75);
#28=STYLED_ITEM('',(#76),#77);
#29=APPLICATION_CONTEXT(' ');
#30=PRODUCT_CATEGORY('part','NONE');
#31=PRODUCT_RELATED_PRODUCT_CATEGORY('detail',' ',(#78));
#32=PRODUCT_DEFINITION_SHAPE('NONE','NONE',#79);
#33=ADVANCED_BREP_SHAPE_REPRESENTATION('1',(#80,#81),#8);
#34=ADVANCED_BREP_SHAPE_REPRESENTATION('2',(#82,#83),#8);
#35=GEOMETRICALLY_BOUNDED_SURFACE_SHAPE_REPRESENTATION('3',(#84,#85),#8);
#38=UNCERTAINTY_MEASURE_WITH_UNIT(LENGTH_MEASURE(1.0E-06),#40,'','');
#40= (CONVERSION_BASED_UNIT('MILLIMETRE',#88)LENGTH_UNIT()NAMED_UNIT(#91));
#41= (NAMED_UNIT(#93)PLANE_ANGLE_UNIT()SI_UNIT($,.RADIAN.));
#42= (NAMED_UNIT(#93)SOLID_ANGLE_UNIT()SI_UNIT($,.STERADIAN.));
#44=PRESENTATION_STYLE_ASSIGNMENT((#99));
#45=COMPOSITE_CURVE('',(#100),.U.);
#46=PRESENTATION_STYLE_ASSIGNMENT((#101));
#47=COMPOSITE_CURVE('',(#102,#103,#104,#105,#106,#107,#108),.U.);
#48=PRESENTATION_STYLE_ASSIGNMENT((#109));
#49=ADVANCED_FACE('',(#110),#111,.T.);
#50=PRESENTATION_STYLE_ASSIGNMENT((#112));
#51=ADVANCED_FACE('',(#113),#114,.T.);
#52=PRESENTATION_STYLE_ASSIGNMENT((#115));
#53=ADVANCED_FACE('',(#116),#117,.T.);
#54=PRESENTATION_STYLE_ASSIGNMENT((#118));
#55=ADVANCED_FACE('',(#119),#120,.T.);
#56=PRESENTATION_STYLE_ASSIGNMENT((#121));
#57=ADVANCED_FACE('',(#122),#123,.T.);
#58=PRESENTATION_STYLE_ASSIGNMENT((#124));
#59=ADVANCED_FACE('',(#125),#126,.T.);
#60=PRESENTATION_STYLE_ASSIGNMENT((#127));
#61=ADVANCED_FACE('',(#128),#129,.T.);
#62=PRESENTATION_STYLE_ASSIGNMENT((#130));
#63=ADVANCED_FACE('',(#131),#132,.T.);
#64=PRESENTATION_STYLE_ASSIGNMENT((#133));
#65=ADVANCED_FACE('',(#134),#135,.T.);
#66=PRESENTATION_STYLE_ASSIGNMENT((#136));
#67=ADVANCED_FACE('',(#137),#138,.T.);
#68=PRESENTATION_STYLE_ASSIGNMENT((#139));
#69=COMPOSITE_CURVE('',(#140,#141,#142,#143),.U.);
#70=PRESENTATION_STYLE_ASSIGNMENT((#144));
#71=ADVANCED_FACE('',(#145),#146,.T.);
#72=PRESENTATION_STYLE_ASSIGNMENT((#147));
#73=ADVANCED_FACE('',(#148),#149,.T.);
#74=PRESENTATION_STYLE_ASSIGNMENT((#150));
#75=ADVANCED_FACE('',(#151),#152,.T.);
#76=PRESENTATION_STYLE_ASSIGNMENT((#153));
#77=ADVANCED_FACE('',(#154),#155,.T.);
#78=PRODUCT('1','','PART--DESC',(#156));
#79=PRODUCT_DEFINITION('','NONE',#157,#2);
#80=MANIFOLD_SOLID_BREP('1',#158);
#81=AXIS2_PLACEMENT_3D('',#159,#160,#161);
#82=MANIFOLD_SOLID_BREP('2',#162);
#83=AXIS2_PLACEMENT_3D('',#163,#164,#165);
#84=GEOMETRIC_SET('3',(#45,#47,#69));
#85=AXIS2_PLACEMENT_3D('',#166,#167,#168);
#88=LENGTH_MEASURE_WITH_UNIT(LENGTH_MEASURE(1.0),#169);
#91=DIMENSIONAL_EXPONENTS(1.0,0.0,0.0,0.0,0.0,0.0,0.0);
#93=DIMENSIONAL_EXPONENTS(0.0,0.0,0.0,0.0,0.0,0.0,0.0);
#99=CURVE_STYLE('',#170,POSITIVE_LENGTH_MEASURE(1.0E-06),#171);
#100=COMPOSITE_CURVE_SEGMENT(.CONTINUOUS.,.T.,#172);
#101=CURVE_STYLE('',#173,POSITIVE_LENGTH_MEASURE(1.0E-06),#174);
#102=COMPOSITE_CURVE_SEGMENT(.CONTINUOUS.,.T.,#175);
#103=COMPOSITE_CURVE_SEGMENT(.CONTINUOUS.,.T.,#176);
#104=COMPOSITE_CURVE_SEGMENT(.CONTINUOUS.,.T.,#177);
#105=COMPOSITE_CURVE_SEGMENT(.CONTINUOUS.,.T.,#178);
#106=COMPOSITE_CURVE_SEGMENT(.CONTINUOUS.,.T.,#179);
#107=COMPOSITE_CURVE_SEGMENT(.CONTINUOUS.,.T.,#180);
#108=COMPOSITE_CURVE_SEGMENT(.CONTINUOUS.,.T.,#181);
#109=SURFACE_STYLE_USAGE(.BOTH.,#182);
#110=FACE_OUTER_BOUND('',#183,.T.);
#111=CYLINDRICAL_SURFACE('',#184,2.50000000000013);
#112=SURFACE_STYLE_USAGE(.BOTH.,#185);
#113=FACE_OUTER_BOUND('',#186,.T.);
#114=CONICAL_SURFACE('',#187,2.75000000000009,0.124354994546744);
#115=SURFACE_STYLE_USAGE(.BOTH.,#188);
#116=FACE_OUTER_BOUND('',#189,.T.);
#117=CYLINDRICAL_SURFACE('',#190,3.00000000000017);
#118=SURFACE_STYLE_USAGE(.BOTH.,#191);
#119=FACE_OUTER_BOUND('',#192,.T.);
#120=CONICAL_SURFACE('',#193,2.70000000000027,0.785398163397543);
#121=SURFACE_STYLE_USAGE(.BOTH.,#194);
#122=FACE_OUTER_BOUND('',#195,.T.);
#123=CONICAL_SURFACE('',#196,2.70000000000027,0.785398163397543);
#124=SURFACE_STYLE_USAGE(.BOTH.,#197);
#125=FACE_OUTER_BOUND('',#198,.T.);
#126=CYLINDRICAL_SURFACE('',#199,3.00000000000017);
#127=SURFACE_STYLE_USAGE(.BOTH.,#200);
#128=FACE_OUTER_BOUND('',#201,.T.);
#129=CONICAL_SURFACE('',#202,2.75000000000009,0.124354994546744);
#130=SURFACE_STYLE_USAGE(.BOTH.,#203);
#131=FACE_OUTER_BOUND('',#204,.T.);
#132=CYLINDRICAL_SURFACE('',#205,2.50000000000013);
#133=SURFACE_STYLE_USAGE(.BOTH.,#206);
#134=FACE_OUTER_BOUND('',#207,.T.);
#135=PLANE('',#208);
#136=SURFACE_STYLE_USAGE(.BOTH.,#209);
#137=FACE_OUTER_BOUND('',#210,.T.);
#138=PLANE('',#211);
#139=CURVE_STYLE('',#212,POSITIVE_LENGTH_MEASURE(1.0E-06),#213);
#140=COMPOSITE_CURVE_SEGMENT(.CONTINUOUS.,.T.,#214);
#141=COMPOSITE_CURVE_SEGMENT(.CONTINUOUS.,.T.,#215);
#142=COMPOSITE_CURVE_SEGMENT(.CONTINUOUS.,.T.,#216);
#143=COMPOSITE_CURVE_SEGMENT(.CONTINUOUS.,.T.,#217);
#144=SURFACE_STYLE_USAGE(.BOTH.,#218);
#145=FACE_OUTER_BOUND('',#219,.T.);
#146=CYLINDRICAL_SURFACE('',#220,2.50000000000013);
#147=SURFACE_STYLE_USAGE(.BOTH.,#221);
#148=FACE_OUTER_BOUND('',#222,.T.);
#149=CYLINDRICAL_SURFACE('',#223,2.50000000000013);
#150=SURFACE_STYLE_USAGE(.BOTH.,#224);
#151=FACE_OUTER_BOUND('',#225,.T.);
#152=PLANE('',#226);
#153=SURFACE_STYLE_USAGE(.BOTH.,#227);
#154=FACE_OUTER_BOUND('',#228,.T.);
#155=PLANE('',#229);
#156=PRODUCT_CONTEXT('',#29,'mechanical');
#157=PRODUCT_DEFINITION_FORMATION_WITH_SPECIFIED_SOURCE(' ','NONE',#78,.NOT_KNOWN.);
#158=CLOSED_SHELL('',(#49,#51,#53,#55,#57,#59,#61,#63,#65,#67));
#159=CARTESIAN_POINT('',(0.0,0.0,0.0));
#160=DIRECTION('',(0.0,0.0,1.0));
#161=DIRECTION('',(1.0,0.0,0.0));
#162=CLOSED_SHELL('',(#71,#73,#75,#77));
#163=CARTESIAN_POINT('',(0.0,0.0,0.0));
#164=DIRECTION('',(0.0,0.0,1.0));
#165=DIRECTION('',(1.0,0.0,0.0));
#166=CARTESIAN_POINT('',(0.0,0.0,0.0));
#167=DIRECTION('',(0.0,0.0,1.0));
#168=DIRECTION('',(1.0,0.0,0.0));
#169= (NAMED_UNIT(#91)LENGTH_UNIT()SI_UNIT(.MILLI.,.METRE.));
#170=DRAUGHTING_PRE_DEFINED_CURVE_FONT('continuous');
#171=COLOUR_RGB('',0.0,1.0,0.0);
#172=TRIMMED_CURVE('',#231,(PARAMETER_VALUE(0.0)),(PARAMETER_VALUE(2.99999999999997)),.T.,.UNSPECIFIED.);
#173=DRAUGHTING_PRE_DEFINED_CURVE_FONT('continuous');
#174=COLOUR_RGB('',0.498039215803146,0.498039215803146,0.498039215803146);
#175=TRIMMED_CURVE('',#232,(PARAMETER_VALUE(0.0)),(PARAMETER_VALUE(45.0)),.T.,.UNSPECIFIED.);
#176=TRIMMED_CURVE('',#233,(PARAMETER_VALUE(0.0)),(PARAMETER_VALUE(2.50000000000003)),.T.,.UNSPECIFIED.);
#177=TRIMMED_CURVE('',#234,(PARAMETER_VALUE(0.0)),(PARAMETER_VALUE(5.0)),.T.,.UNSPECIFIED.);
#178=TRIMMED_CURVE('',#235,(PARAMETER_VALUE(0.0)),(PARAMETER_VALUE(4.03112887414927)),.T.,.UNSPECIFIED.);
#179=TRIMMED_CURVE('',#236,(PARAMETER_VALUE(0.0)),(PARAMETER_VALUE(35.3999999999999)),.T.,.UNSPECIFIED.);
#180=TRIMMED_CURVE('',#237,(PARAMETER_VALUE(0.0)),(PARAMETER_VALUE(0.848528137423809)),.T.,.UNSPECIFIED.);
#181=TRIMMED_CURVE('',#238,(PARAMETER_VALUE(0.0)),(PARAMETER_VALUE(2.40000000000026)),.T.,.UNSPECIFIED.);
#182=SURFACE_SIDE_STYLE('',(#239));
#183=EDGE_LOOP('',(#240,#241,#242,#243));
#184=AXIS2_PLACEMENT_3D('',#244,#245,#246);
#185=SURFACE_SIDE_STYLE('',(#247));
#186=EDGE_LOOP('',(#248,#249,#250,#251));
#187=AXIS2_PLACEMENT_3D('',#252,#253,#254);
#188=SURFACE_SIDE_STYLE('',(#255));
#189=EDGE_LOOP('',(#256,#257,#258,#259));
#190=AXIS2_PLACEMENT_3D('',#260,#261,#262);
#191=SURFACE_SIDE_STYLE('',(#263));
#192=EDGE_LOOP('',(#264,#265,#266,#267));
#193=AXIS2_PLACEMENT_3D('',#268,#269,#270);
#194=SURFACE_SIDE_STYLE('',(#271));
#195=EDGE_LOOP('',(#272,#273,#274,#275));
#196=AXIS2_PLACEMENT_3D('',#276,#277,#278);
#197=SURFACE_SIDE_STYLE('',(#279));
#198=EDGE_LOOP('',(#280,#281,#282,#283));
#199=AXIS2_PLACEMENT_3D('',#284,#285,#286);
#200=SURFACE_SIDE_STYLE('',(#287));
#201=EDGE_LOOP('',(#288,#289,#290,#291));
#202=AXIS2_PLACEMENT_3D('',#292,#293,#294);
#203=SURFACE_SIDE_STYLE('',(#295));
#204=EDGE_LOOP('',(#296,#297,#298,#299));
#205=AXIS2_PLACEMENT_3D('',#300,#301,#302);
#206=SURFACE_SIDE_STYLE('',(#303));
#207=EDGE_LOOP('',(#304,#305));
#208=AXIS2_PLACEMENT_3D('',#306,#307,#308);
#209=SURFACE_SIDE_STYLE('',(#309));
#210=EDGE_LOOP('',(#310,#311));
#211=AXIS2_PLACEMENT_3D('',#312,#313,#314);
#212=DRAUGHTING_PRE_DEFINED_CURVE_FONT('continuous');
#213=COLOUR_RGB('',0.0,0.0,1.0);
#214=TRIMMED_CURVE('',#315,(PARAMETER_VALUE(0.0)),(PARAMETER_VALUE(17.0)),.T.,.UNSPECIFIED.);
#215=TRIMMED_CURVE('',#316,(PARAMETER_VALUE(0.0)),(PARAMETER_VALUE(2.49999999999999)),.T.,.UNSPECIFIED.);
#216=TRIMMED_CURVE('',#317,(PARAMETER_VALUE(0.0)),(PARAMETER_VALUE(17.0)),.T.,.UNSPECIFIED.);
#217=TRIMMED_CURVE('',#318,(PARAMETER_VALUE(0.0)),(PARAMETER_VALUE(2.50000000000003)),.T.,.UNSPECIFIED.);
#218=SURFACE_SIDE_STYLE('',(#319));
#219=EDGE_LOOP('',(#320,#321,#322,#323));
#220=AXIS2_PLACEMENT_3D('',#324,#325,#326);
#221=SURFACE_SIDE_STYLE('',(#327));
#222=EDGE_LOOP('',(#328,#329,#330,#331));
#223=AXIS2_PLACEMENT_3D('',#332,#333,#334);
#224=SURFACE_SIDE_STYLE('',(#335));
#225=EDGE_LOOP('',(#336,#337));
#226=AXIS2_PLACEMENT_3D('',#338,#339,#340);
#227=SURFACE_SIDE_STYLE('',(#341));
#228=EDGE_LOOP('',(#342,#343));
#229=AXIS2_PLACEMENT_3D('',#344,#345,#346);
#231=LINE('',#347,#348);
#232=LINE('',#349,#350);
#233=LINE('',#351,#352);
#234=LINE('',#353,#354);
#235=LINE('',#355,#356);
#236=LINE('',#357,#358);
#237=LINE('',#359,#360);
#238=LINE('',#361,#362);
#239=SURFACE_STYLE_FILL_AREA(#363);
#240=ORIENTED_EDGE('',*,*,#364,.F.);
#241=ORIENTED_EDGE('',*,*,#365,.T.);
#242=ORIENTED_EDGE('',*,*,#366,.F.);
#243=ORIENTED_EDGE('',*,*,#367,.F.);
#244=CARTESIAN_POINT('',(3.9801020972289E-16,0.0,-6.5));
#245=DIRECTION('',(6.12323399573677E-17,0.0,-1.0));
#246=DIRECTION('',(0.0,1.0,0.0));
#247=SURFACE_STYLE_FILL_AREA(#368);
#248=ORIENTED_EDGE('',*,*,#369,.F.);
#249=ORIENTED_EDGE('',*,*,#370,.T.);
#250=ORIENTED_EDGE('',*,*,#371,.F.);
#251=ORIENTED_EDGE('',*,*,#365,.F.);
#252=CARTESIAN_POINT('',(1.22464679914735E-16,0.0,-2.0));
#253=DIRECTION('',(-6.12323399573677E-17,-0.0,1.0));
#254=DIRECTION('',(0.0,1.0,0.0));
#255=SURFACE_STYLE_FILL_AREA(#372);
#256=ORIENTED_EDGE('',*,*,#373,.F.);
#257=ORIENTED_EDGE('',*,*,#374,.T.);
#258=ORIENTED_EDGE('',*,*,#375,.F.);
#259=ORIENTED_EDGE('',*,*,#370,.F.);
#260=CARTESIAN_POINT('',(-1.0838124172454E-15,0.0,17.6999999999999));
#261=DIRECTION('',(6.12323399573677E-17,0.0,-1.0));
#262=DIRECTION('',(0.0,1.0,0.0));
#263=SURFACE_STYLE_FILL_AREA(#376);
#264=ORIENTED_EDGE('',*,*,#377,.F.);
#265=ORIENTED_EDGE('',*,*,#378,.T.);
#266=ORIENTED_EDGE('',*,*,#379,.F.);
#267=ORIENTED_EDGE('',*,*,#374,.F.);
#268=CARTESIAN_POINT('',(-2.18599453647801E-15,0.0,35.6999999999998));
#269=DIRECTION('',(6.12323399573677E-17,-0.0,-1.0));
#270=DIRECTION('',(0.0,1.0,0.0));
#271=SURFACE_STYLE_FILL_AREA(#380);
#272=ORIENTED_EDGE('',*,*,#377,.T.);
#273=ORIENTED_EDGE('',*,*,#381,.F.);
#274=ORIENTED_EDGE('',*,*,#379,.T.);
#275=ORIENTED_EDGE('',*,*,#382,.T.);
#276=CARTESIAN_POINT('',(-2.18599453647801E-15,0.0,35.6999999999998));
#277=DIRECTION('',(6.12323399573677E-17,-0.0,-1.0));
#278=DIRECTION('',(0.0,1.0,0.0));
#279=SURFACE_STYLE_FILL_AREA(#383);
#280=ORIENTED_EDGE('',*,*,#373,.T.);
#281=ORIENTED_EDGE('',*,*,#384,.F.);
#282=ORIENTED_EDGE('',*,*,#375,.T.);
#283=ORIENTED_EDGE('',*,*,#381,.T.);
#284=CARTESIAN_POINT('',(-1.0838124172454E-15,0.0,17.6999999999999));
#285=DIRECTION('',(6.12323399573677E-17,0.0,-1.0));
#286=DIRECTION('',(0.0,1.0,0.0));
#287=SURFACE_STYLE_FILL_AREA(#385);
#288=ORIENTED_EDGE('',*,*,#369,.T.);
#289=ORIENTED_EDGE('',*,*,#386,.F.);
#290=ORIENTED_EDGE('',*,*,#371,.T.);
#291=ORIENTED_EDGE('',*,*,#384,.T.);
#292=CARTESIAN_POINT('',(1.22464679914735E-16,0.0,-2.0));
#293=DIRECTION('',(-6.12323399573677E-17,-0.0,1.0));
#294=DIRECTION('',(0.0,1.0,0.0));
#295=SURFACE_STYLE_FILL_AREA(#387);
#296=ORIENTED_EDGE('',*,*,#364,.T.);
#297=ORIENTED_EDGE('',*,*,#388,.F.);
#298=ORIENTED_EDGE('',*,*,#366,.T.);
#299=ORIENTED_EDGE('',*,*,#386,.T.);
#300=CARTESIAN_POINT('',(3.9801020972289E-16,0.0,-6.5));
#301=DIRECTION('',(6.12323399573677E-17,0.0,-1.0));
#302=DIRECTION('',(0.0,1.0,0.0));
#303=SURFACE_STYLE_FILL_AREA(#389);
#304=ORIENTED_EDGE('',*,*,#367,.T.);
#305=ORIENTED_EDGE('',*,*,#388,.T.);
#306=CARTESIAN_POINT('',(5.51091059616309E-16,1.25000000000011,-9.0));
#307=DIRECTION('',(6.12323399573677E-17,0.0,-1.0));
#308=DIRECTION('',(0.0,1.0,0.0));
#309=SURFACE_STYLE_FILL_AREA(#390);
#310=ORIENTED_EDGE('',*,*,#378,.F.);
#311=ORIENTED_EDGE('',*,*,#382,.F.);
#312=CARTESIAN_POINT('',(-2.20436423846523E-15,1.20000000000013,35.9999999999999));
#313=DIRECTION('',(-6.12323399573677E-17,9.47390314346697E-14,1.0));
#314=DIRECTION('',(-5.80109258003944E-30,-1.0,9.47390314346697E-14));
#315=LINE('',#391,#392);
#316=LINE('',#393,#394);
#317=LINE('',#395,#396);
#318=LINE('',#397,#398);
#319=SURFACE_STYLE_FILL_AREA(#399);
#320=ORIENTED_EDGE('',*,*,#400,.F.);
#321=ORIENTED_EDGE('',*,*,#401,.T.);
#322=ORIENTED_EDGE('',*,*,#402,.F.);
#323=ORIENTED_EDGE('',*,*,#403,.F.);
#324=CARTESIAN_POINT('',(1.07156594925393E-15,0.0,-17.5));
#325=DIRECTION('',(6.12323399573677E-17,0.0,-1.0));
#326=DIRECTION('',(0.0,1.0,0.0));
#327=SURFACE_STYLE_FILL_AREA(#404);
#328=ORIENTED_EDGE('',*,*,#400,.T.);
#329=ORIENTED_EDGE('',*,*,#405,.F.);
#330=ORIENTED_EDGE('',*,*,#402,.T.);
#331=ORIENTED_EDGE('',*,*,#406,.T.);
#332=CARTESIAN_POINT('',(1.07156594925393E-15,0.0,-17.5));
#333=DIRECTION('',(6.12323399573677E-17,0.0,-1.0));
#334=DIRECTION('',(0.0,1.0,0.0));
#335=SURFACE_STYLE_FILL_AREA(#407);
#336=ORIENTED_EDGE('',*,*,#403,.T.);
#337=ORIENTED_EDGE('',*,*,#405,.T.);
#338=CARTESIAN_POINT('',(1.59204083889156E-15,1.25000000000014,-26.0));
#339=DIRECTION('',(6.12323399573677E-17,0.0,-1.0));
#340=DIRECTION('',(0.0,1.0,0.0));
#341=SURFACE_STYLE_FILL_AREA(#408);
#342=ORIENTED_EDGE('',*,*,#401,.F.);
#343=ORIENTED_EDGE('',*,*,#406,.F.);
#344=CARTESIAN_POINT('',(5.51091059616309E-16,1.25000000000011,-9.0));
#345=DIRECTION('',(-6.12323399573677E-17,0.0,1.0));
#346=DIRECTION('',(0.0,-1.0,0.0));
#347=CARTESIAN_POINT('',(0.0,8.5265128291212E-14,0.0));
#348=VECTOR('',#409,1.0);
#349=CARTESIAN_POINT('',(-2.20436423846524E-15,0.0,36.0));
#350=VECTOR('',#410,1.0);
#351=CARTESIAN_POINT('',(5.51091059616309E-16,9.9475983006414E-14,-9.0));
#352=VECTOR('',#411,1.0);
#353=CARTESIAN_POINT('',(5.51091059616309E-16,2.50000000000013,-9.0));
#354=VECTOR('',#412,1.0);
#355=CARTESIAN_POINT('',(2.44929359829471E-16,2.50000000000013,-4.0));
#356=VECTOR('',#413,1.0);
#357=CARTESIAN_POINT('',(0.0,3.00000000000006,0.0));
#358=VECTOR('',#414,1.0);
#359=CARTESIAN_POINT('',(-2.16762483449081E-15,3.00000000000028,35.3999999999999));
#360=VECTOR('',#415,1.0);
#361=CARTESIAN_POINT('',(-2.20436423846522E-15,2.40000000000026,35.9999999999998));
#362=VECTOR('',#416,1.0);
#363=FILL_AREA_STYLE('',(#417));
#364=EDGE_CURVE('',#418,#419,#420,.T.);
#365=EDGE_CURVE('',#418,#421,#422,.T.);
#366=EDGE_CURVE('',#423,#421,#424,.T.);
#367=EDGE_CURVE('',#419,#423,#425,.T.);
#368=FILL_AREA_STYLE('',(#426));
#369=EDGE_CURVE('',#427,#418,#428,.T.);
#370=EDGE_CURVE('',#427,#429,#430,.T.);
#371=EDGE_CURVE('',#421,#429,#431,.T.);
#372=FILL_AREA_STYLE('',(#432));
#373=EDGE_CURVE('',#433,#427,#434,.T.);
#374=EDGE_CURVE('',#433,#435,#436,.T.);
#375=EDGE_CURVE('',#429,#435,#437,.T.);
#376=FILL_AREA_STYLE('',(#438));
#377=EDGE_CURVE('',#439,#433,#440,.T.);
#378=EDGE_CURVE('',#439,#441,#442,.T.);
#379=EDGE_CURVE('',#435,#441,#443,.T.);
#380=FILL_AREA_STYLE('',(#444));
#381=EDGE_CURVE('',#435,#433,#445,.T.);
#382=EDGE_CURVE('',#441,#439,#446,.T.);
#383=FILL_AREA_STYLE('',(#447));
#384=EDGE_CURVE('',#429,#427,#448,.T.);
#385=FILL_AREA_STYLE('',(#449));
#386=EDGE_CURVE('',#421,#418,#450,.T.);
#387=FILL_AREA_STYLE('',(#451));
#388=EDGE_CURVE('',#423,#419,#452,.T.);
#389=FILL_AREA_STYLE('',(#453));
#390=FILL_AREA_STYLE('',(#454));
#391=CARTESIAN_POINT('',(5.51091059616309E-16,9.9475983006414E-14,-9.0));
#392=VECTOR('',#455,1.0);
#393=CARTESIAN_POINT('',(1.59204083889156E-15,1.4210854715202E-13,-26.0));
#394=VECTOR('',#456,1.0);
#395=CARTESIAN_POINT('',(1.59204083889156E-15,2.50000000000013,-26.0));
#396=VECTOR('',#457,1.0);
#397=CARTESIAN_POINT('',(5.51091059616309E-16,2.50000000000013,-9.0));
#398=VECTOR('',#458,1.0);
#399=FILL_AREA_STYLE('',(#459));
#400=EDGE_CURVE('',#460,#461,#462,.T.);
#401=EDGE_CURVE('',#460,#463,#464,.T.);
#402=EDGE_CURVE('',#465,#463,#466,.T.);
#403=EDGE_CURVE('',#461,#465,#467,.T.);
#404=FILL_AREA_STYLE('',(#468));
#405=EDGE_CURVE('',#465,#461,#469,.T.);
#406=EDGE_CURVE('',#463,#460,#470,.T.);
#407=FILL_AREA_STYLE('',(#471));
#408=FILL_AREA_STYLE('',(#472));
#409=DIRECTION('',(0.0,1.0,0.0));
#410=DIRECTION('',(6.12323399573677E-17,2.21057740014253E-15,-1.0));
#411=DIRECTION('',(0.0,1.0,0.0));
#412=DIRECTION('',(-6.12323399573677E-17,0.0,1.0));
#413=DIRECTION('',(-6.07594962791064E-17,0.124034734589191,0.99227787671367));
#414=DIRECTION('',(-6.12323399573677E-17,6.42298518201223E-15,1.0));
#415=DIRECTION('',(-4.32978028117709E-17,-0.707106781186615,0.707106781186481));
#416=DIRECTION('',(-5.75211076723592E-30,-1.0,9.47390314346697E-14));
#417=FILL_AREA_STYLE_COLOUR('',#473);
#418=VERTEX_POINT('',#474);
#419=VERTEX_POINT('',#475);
#420=LINE('',#476,#477);
#421=VERTEX_POINT('',#478);
#422=CIRCLE('',#479,2.50000000000013);
#423=VERTEX_POINT('',#480);
#424=LINE('',#481,#482);
#425=CIRCLE('',#483,2.50000000000013);
#426=FILL_AREA_STYLE_COLOUR('',#484);
#427=VERTEX_POINT('',#485);
#428=LINE('',#486,#487);
#429=VERTEX_POINT('',#488);
#430=CIRCLE('',#489,3.00000000000006);
#431=LINE('',#490,#491);
#432=FILL_AREA_STYLE_COLOUR('',#492);
#433=VERTEX_POINT('',#493);
#434=LINE('',#494,#495);
#435=VERTEX_POINT('',#496);
#436=CIRCLE('',#497,3.00000000000028);
#437=LINE('',#498,#499);
#438=FILL_AREA_STYLE_COLOUR('',#500);
#439=VERTEX_POINT('',#501);
#440=LINE('',#502,#503);
#441=VERTEX_POINT('',#504);
#442=CIRCLE('',#505,2.40000000000026);
#443=LINE('',#506,#507);
#444=FILL_AREA_STYLE_COLOUR('',#508);
#445=CIRCLE('',#509,3.00000000000028);
#446=CIRCLE('',#510,2.40000000000026);
#447=FILL_AREA_STYLE_COLOUR('',#511);
#448=CIRCLE('',#512,3.00000000000006);
#449=FILL_AREA_STYLE_COLOUR('',#513);
#450=CIRCLE('',#514,2.50000000000013);
#451=FILL_AREA_STYLE_COLOUR('',#515);
#452=CIRCLE('',#516,2.50000000000013);
#453=FILL_AREA_STYLE_COLOUR('',#517);
#454=FILL_AREA_STYLE_COLOUR('',#518);
#455=DIRECTION('',(6.12323399573677E-17,2.507797890918E-15,-1.0));
#456=DIRECTION('',(0.0,1.0,0.0));
#457=DIRECTION('',(-6.12323399573677E-17,0.0,1.0));
#458=DIRECTION('',(0.0,-1.0,0.0));
#459=FILL_AREA_STYLE_COLOUR('',#519);
#460=VERTEX_POINT('',#520);
#461=VERTEX_POINT('',#521);
#462=LINE('',#522,#523);
#463=VERTEX_POINT('',#524);
#464=CIRCLE('',#525,2.50000000000013);
#465=VERTEX_POINT('',#526);
#466=LINE('',#527,#528);
#467=CIRCLE('',#529,2.50000000000013);
#468=FILL_AREA_STYLE_COLOUR('',#530);
#469=CIRCLE('',#531,2.50000000000013);
#470=CIRCLE('',#532,2.50000000000013);
#471=FILL_AREA_STYLE_COLOUR('',#533);
#472=FILL_AREA_STYLE_COLOUR('',#534);
#473=COLOUR_RGB('',0.498039215803146,0.498039215803146,0.498039215803146);
#474=CARTESIAN_POINT('',(2.44929359829471E-16,2.50000000000013,-4.0));
#475=CARTESIAN_POINT('',(5.51091059616309E-16,2.50000000000013,-9.0));
#476=CARTESIAN_POINT('',(9.18485099360358E-17,2.50000000000013,-6.5));
#477=VECTOR('',#535,1.0);
#478=CARTESIAN_POINT('',(5.51091059616324E-16,-2.50000000000013,-4.0));
#479=AXIS2_PLACEMENT_3D('',#536,#537,#538);
#480=CARTESIAN_POINT('',(8.57252759403163E-16,-2.50000000000013,-9.0));
#481=CARTESIAN_POINT('',(7.04171909509743E-16,-2.50000000000013,-6.5));
#482=VECTOR('',#539,1.0);
#483=AXIS2_PLACEMENT_3D('',#540,#541,#542);
#484=COLOUR_RGB('',0.498039215803146,0.498039215803146,0.498039215803146);
#485=CARTESIAN_POINT('',(0.0,3.00000000000006,0.0));
#486=CARTESIAN_POINT('',(-2.14313189850798E-16,2.75000000000009,-2.0));
#487=VECTOR('',#543,1.0);
#488=CARTESIAN_POINT('',(3.67394039744213E-16,-3.00000000000006,2.24963967399283E-32));
#489=AXIS2_PLACEMENT_3D('',#544,#545,#546);
#490=CARTESIAN_POINT('',(4.59242549680269E-16,-2.75000000000009,-2.0));
#491=VECTOR('',#547,1.0);
#492=COLOUR_RGB('',0.498039215803146,0.498039215803146,0.498039215803146);
#493=CARTESIAN_POINT('',(-2.16762483449081E-15,3.00000000000028,35.3999999999999));
#494=CARTESIAN_POINT('',(-1.45120645698963E-15,3.00000000000017,17.6999999999999));
#495=VECTOR('',#548,1.0);
#496=CARTESIAN_POINT('',(-1.80023079474657E-15,-3.00000000000028,35.3999999999999));
#497=AXIS2_PLACEMENT_3D('',#549,#550,#551);
#498=CARTESIAN_POINT('',(-7.16418377501177E-16,-3.00000000000017,17.6999999999999));
#499=VECTOR('',#552,1.0);
#500=COLOUR_RGB('',0.498039215803146,0.498039215803146,0.498039215803146);
#501=CARTESIAN_POINT('',(-2.20436423846522E-15,2.40000000000026,35.9999999999998));
#502=CARTESIAN_POINT('',(-2.51664917224783E-15,2.70000000000027,35.6999999999998));
#503=VECTOR('',#553,1.0);
#504=CARTESIAN_POINT('',(-1.91044900666983E-15,-2.40000000000026,35.9999999999998));
#505=AXIS2_PLACEMENT_3D('',#554,#555,#556);
#506=CARTESIAN_POINT('',(-1.8553399007082E-15,-2.70000000000027,35.6999999999998));
#507=VECTOR('',#557,1.0);
#508=COLOUR_RGB('',0.498039215803146,0.498039215803146,0.498039215803146);
#509=AXIS2_PLACEMENT_3D('',#558,#559,#560);
#510=AXIS2_PLACEMENT_3D('',#561,#562,#563);
#511=COLOUR_RGB('',0.498039215803146,0.498039215803146,0.498039215803146);
#512=AXIS2_PLACEMENT_3D('',#564,#565,#566);
#513=COLOUR_RGB('',0.498039215803146,0.498039215803146,0.498039215803146);
#514=AXIS2_PLACEMENT_3D('',#567,#568,#569);
#515=COLOUR_RGB('',0.498039215803146,0.498039215803146,0.498039215803146);
#516=AXIS2_PLACEMENT_3D('',#570,#571,#572);
#517=COLOUR_RGB('',0.498039215803146,0.498039215803146,0.498039215803146);
#518=COLOUR_RGB('',0.498039215803146,0.498039215803146,0.498039215803146);
#519=COLOUR_RGB('',0.800000011920929,0.800000011920929,0.800000011920929);
#520=CARTESIAN_POINT('',(5.51091059616309E-16,2.50000000000013,-9.0));
#521=CARTESIAN_POINT('',(1.59204083889156E-15,2.50000000000013,-26.0));
#522=CARTESIAN_POINT('',(7.6540424946708E-16,2.50000000000013,-17.5));
#523=VECTOR('',#573,1.0);
#524=CARTESIAN_POINT('',(8.57252759403163E-16,-2.50000000000013,-9.0));
#525=AXIS2_PLACEMENT_3D('',#574,#575,#576);
#526=CARTESIAN_POINT('',(1.89820253867841E-15,-2.50000000000013,-26.0));
#527=CARTESIAN_POINT('',(1.37772764904079E-15,-2.50000000000013,-17.5));
#528=VECTOR('',#577,1.0);
#529=AXIS2_PLACEMENT_3D('',#578,#579,#580);
#530=COLOUR_RGB('',0.800000011920929,0.800000011920929,0.800000011920929);
#531=AXIS2_PLACEMENT_3D('',#581,#582,#583);
#532=AXIS2_PLACEMENT_3D('',#584,#585,#586);
#533=COLOUR_RGB('',0.800000011920929,0.800000011920929,0.800000011920929);
#534=COLOUR_RGB('',0.800000011920929,0.800000011920929,0.800000011920929);
#535=DIRECTION('',(6.12323399573677E-17,0.0,-1.0));
#536=CARTESIAN_POINT('',(2.44929359829471E-16,0.0,-4.0));
#537=DIRECTION('',(6.12323399573677E-17,0.0,-1.0));
#538=DIRECTION('',(0.0,1.0,0.0));
#539=DIRECTION('',(-6.12323399573677E-17,-0.0,1.0));
#540=CARTESIAN_POINT('',(5.51091059616309E-16,0.0,-9.0));
#541=DIRECTION('',(6.12323399573677E-17,0.0,-1.0));
#542=DIRECTION('',(0.0,1.0,0.0));
#543=DIRECTION('',(7.59493703488808E-17,-0.124034734589191,-0.99227787671367));
#544=CARTESIAN_POINT('',(0.0,0.0,0.0));
#545=DIRECTION('',(6.12323399573677E-17,0.0,-1.0));
#546=DIRECTION('',(0.0,1.0,0.0));
#547=DIRECTION('',(-4.55696222093319E-17,-0.124034734589191,0.99227787671367));
#548=DIRECTION('',(6.12323399573677E-17,0.0,-1.0));
#549=CARTESIAN_POINT('',(-2.16762483449081E-15,0.0,35.3999999999999));
#550=DIRECTION('',(6.12323399573677E-17,0.0,-1.0));
#551=DIRECTION('',(0.0,1.0,0.0));
#552=DIRECTION('',(-6.12323399573677E-17,-0.0,1.0));
#553=DIRECTION('',(-4.32978028117869E-17,0.707106781186615,-0.707106781186481));
#554=CARTESIAN_POINT('',(-2.20436423846522E-15,0.0,35.9999999999998));
#555=DIRECTION('',(6.12323399573677E-17,0.0,-1.0));
#556=DIRECTION('',(0.0,1.0,0.0));
#557=DIRECTION('',(-1.29893408435328E-16,0.707106781186615,0.707106781186481));
#558=CARTESIAN_POINT('',(-2.16762483449081E-15,0.0,35.3999999999999));
#559=DIRECTION('',(6.12323399573677E-17,0.0,-1.0));
#560=DIRECTION('',(0.0,1.0,0.0));
#561=CARTESIAN_POINT('',(-2.20436423846522E-15,0.0,35.9999999999998));
#562=DIRECTION('',(6.12323399573677E-17,0.0,-1.0));
#563=DIRECTION('',(0.0,1.0,0.0));
#564=CARTESIAN_POINT('',(0.0,0.0,0.0));
#565=DIRECTION('',(6.12323399573677E-17,0.0,-1.0));
#566=DIRECTION('',(0.0,1.0,0.0));
#567=CARTESIAN_POINT('',(2.44929359829471E-16,0.0,-4.0));
#568=DIRECTION('',(6.12323399573677E-17,0.0,-1.0));
#569=DIRECTION('',(0.0,1.0,0.0));
#570=CARTESIAN_POINT('',(5.51091059616309E-16,0.0,-9.0));
#571=DIRECTION('',(6.12323399573677E-17,0.0,-1.0));
#572=DIRECTION('',(0.0,1.0,0.0));
#573=DIRECTION('',(6.12323399573677E-17,0.0,-1.0));
#574=CARTESIAN_POINT('',(5.51091059616309E-16,0.0,-9.0));
#575=DIRECTION('',(6.12323399573677E-17,0.0,-1.0));
#576=DIRECTION('',(0.0,1.0,0.0));
#577=DIRECTION('',(-6.12323399573677E-17,-0.0,1.0));
#578=CARTESIAN_POINT('',(1.59204083889156E-15,0.0,-26.0));
#579=DIRECTION('',(6.12323399573677E-17,0.0,-1.0));
#580=DIRECTION('',(0.0,1.0,0.0));
#581=CARTESIAN_POINT('',(1.59204083889156E-15,0.0,-26.0));
#582=DIRECTION('',(6.12323399573677E-17,0.0,-1.0));
#583=DIRECTION('',(0.0,1.0,0.0));
#584=CARTESIAN_POINT('',(5.51091059616309E-16,0.0,-9.0));
#585=DIRECTION('',(6.12323399573677E-17,0.0,-1.0));
#586=DIRECTION('',(0.0,1.0,0.0));
#587=DIRECTION('',(0.0,0.0,1.0));
#588=DIRECTION('',(1.0,0.0,0.0));
#589=CARTESIAN_POINT('',(0.0,0.0,36.000000));
#590=AXIS2_PLACEMENT_3D('PCS', #589,#587,#588);
#591=CARTESIAN_POINT('',(0.0,0.0,0.000000));
#592=AXIS2_PLACEMENT_3D('MCS', #591,#587,#588);
#593=CARTESIAN_POINT('',(0.0,0.0,-26.000000));
#594=AXIS2_PLACEMENT_3D('CIP', #593,#587,#588);
ENDSEC;
END-ISO-10303-21;
