ISO-10303-21;
HEADER;
FILE_DESCRIPTION(('STEP AP214'),'1');
FILE_NAME('31150908E43.stp','2022-08-02T11:45:15',(' '),(' '),'Spatial InterOp 3D',' ',' ');
FILE_SCHEMA(('AUTOMOTIVE_DESIGN { 1 0 10303 214 1 1 1 1 }'));
ENDSEC;
DATA;
#1=MECHANICAL_DESIGN_GEOMETRIC_PRESENTATION_REPRESENTATION(' ',(#12,#13,#14,#15,#16,#17,#18,#19,#20,#21,#22,#23,#24,#25,#26,#27,#28,#29),#8);
#2=PRODUCT_DEFINITION_CONTEXT('',#30,'design');
#3=APPLICATION_PROTOCOL_DEFINITION('INTERNATIONAL STANDARD','automotive_design',1994,#30);
#4=PRODUCT_CATEGORY_RELATIONSHIP('NONE','NONE',#31,#32);
#5=SHAPE_DEFINITION_REPRESENTATION(#33,#34);
#6=SHAPE_DEFINITION_REPRESENTATION(#33,#35);
#7=SHAPE_DEFINITION_REPRESENTATION(#33,#36);
#8= (GEOMETRIC_REPRESENTATION_CONTEXT(3)GLOBAL_UNCERTAINTY_ASSIGNED_CONTEXT((#39))GLOBAL_UNIT_ASSIGNED_CONTEXT((#41,#42,#43))REPRESENTATION_CONTEXT('NONE','WORKSPACE'));
#12=STYLED_ITEM('',(#45),#46);
#13=STYLED_ITEM('',(#47),#48);
#14=STYLED_ITEM('',(#49),#50);
#15=STYLED_ITEM('',(#51),#52);
#16=STYLED_ITEM('',(#53),#54);
#17=STYLED_ITEM('',(#55),#56);
#18=STYLED_ITEM('',(#57),#58);
#19=STYLED_ITEM('',(#59),#60);
#20=STYLED_ITEM('',(#61),#62);
#21=STYLED_ITEM('',(#63),#64);
#22=STYLED_ITEM('',(#65),#66);
#23=STYLED_ITEM('',(#67),#68);
#24=STYLED_ITEM('',(#69),#70);
#25=STYLED_ITEM('',(#71),#72);
#26=STYLED_ITEM('',(#73),#74);
#27=STYLED_ITEM('',(#75),#76);
#28=STYLED_ITEM('',(#77),#78);
#29=STYLED_ITEM('',(#79),#80);
#30=APPLICATION_CONTEXT(' ');
#31=PRODUCT_CATEGORY('part','NONE');
#32=PRODUCT_RELATED_PRODUCT_CATEGORY('detail',' ',(#81));
#33=PRODUCT_DEFINITION_SHAPE('NONE','NONE',#82);
#34=ADVANCED_BREP_SHAPE_REPRESENTATION('1',(#83,#84),#8);
#35=ADVANCED_BREP_SHAPE_REPRESENTATION('2',(#85,#86),#8);
#36=GEOMETRICALLY_BOUNDED_SURFACE_SHAPE_REPRESENTATION('3',(#87,#88),#8);
#39=UNCERTAINTY_MEASURE_WITH_UNIT(LENGTH_MEASURE(1.0E-06),#41,'','');
#41= (CONVERSION_BASED_UNIT('MILLIMETRE',#91)LENGTH_UNIT()NAMED_UNIT(#94));
#42= (NAMED_UNIT(#96)PLANE_ANGLE_UNIT()SI_UNIT($,.RADIAN.));
#43= (NAMED_UNIT(#96)SOLID_ANGLE_UNIT()SI_UNIT($,.STERADIAN.));
#45=PRESENTATION_STYLE_ASSIGNMENT((#102));
#46=COMPOSITE_CURVE('',(#103),.U.);
#47=PRESENTATION_STYLE_ASSIGNMENT((#104));
#48=COMPOSITE_CURVE('',(#105,#106,#107,#108,#109,#110,#111),.U.);
#49=PRESENTATION_STYLE_ASSIGNMENT((#112));
#50=ADVANCED_FACE('',(#113),#114,.T.);
#51=PRESENTATION_STYLE_ASSIGNMENT((#115));
#52=ADVANCED_FACE('',(#116),#117,.T.);
#53=PRESENTATION_STYLE_ASSIGNMENT((#118));
#54=ADVANCED_FACE('',(#119),#120,.T.);
#55=PRESENTATION_STYLE_ASSIGNMENT((#121));
#56=ADVANCED_FACE('',(#122),#123,.T.);
#57=PRESENTATION_STYLE_ASSIGNMENT((#124));
#58=ADVANCED_FACE('',(#125),#126,.T.);
#59=PRESENTATION_STYLE_ASSIGNMENT((#127));
#60=ADVANCED_FACE('',(#128),#129,.T.);
#61=PRESENTATION_STYLE_ASSIGNMENT((#130));
#62=ADVANCED_FACE('',(#131,#132),#133,.T.);
#63=PRESENTATION_STYLE_ASSIGNMENT((#134));
#64=ADVANCED_FACE('',(#135),#136,.T.);
#65=PRESENTATION_STYLE_ASSIGNMENT((#137));
#66=ADVANCED_FACE('',(#138),#139,.T.);
#67=PRESENTATION_STYLE_ASSIGNMENT((#140));
#68=COMPOSITE_CURVE('',(#141,#142,#143,#144,#145),.U.);
#69=PRESENTATION_STYLE_ASSIGNMENT((#146));
#70=ADVANCED_FACE('',(#147),#148,.T.);
#71=PRESENTATION_STYLE_ASSIGNMENT((#149));
#72=ADVANCED_FACE('',(#150),#151,.T.);
#73=PRESENTATION_STYLE_ASSIGNMENT((#152));
#74=ADVANCED_FACE('',(#153),#154,.T.);
#75=PRESENTATION_STYLE_ASSIGNMENT((#155));
#76=ADVANCED_FACE('',(#156),#157,.T.);
#77=PRESENTATION_STYLE_ASSIGNMENT((#158));
#78=ADVANCED_FACE('',(#159),#160,.T.);
#79=PRESENTATION_STYLE_ASSIGNMENT((#161));
#80=ADVANCED_FACE('',(#162),#163,.T.);
#81=PRODUCT('1','','PART--DESC',(#164));
#82=PRODUCT_DEFINITION('','NONE',#165,#2);
#83=MANIFOLD_SOLID_BREP('1',#166);
#84=AXIS2_PLACEMENT_3D('',#167,#168,#169);
#85=MANIFOLD_SOLID_BREP('2',#170);
#86=AXIS2_PLACEMENT_3D('',#171,#172,#173);
#87=GEOMETRIC_SET('3',(#46,#48,#68));
#88=AXIS2_PLACEMENT_3D('',#174,#175,#176);
#91=LENGTH_MEASURE_WITH_UNIT(LENGTH_MEASURE(1.0),#177);
#94=DIMENSIONAL_EXPONENTS(1.0,0.0,0.0,0.0,0.0,0.0,0.0);
#96=DIMENSIONAL_EXPONENTS(0.0,0.0,0.0,0.0,0.0,0.0,0.0);
#102=CURVE_STYLE('',#178,POSITIVE_LENGTH_MEASURE(1.0E-06),#179);
#103=COMPOSITE_CURVE_SEGMENT(.CONTINUOUS.,.T.,#180);
#104=CURVE_STYLE('',#181,POSITIVE_LENGTH_MEASURE(1.0E-06),#182);
#105=COMPOSITE_CURVE_SEGMENT(.CONTINUOUS.,.T.,#183);
#106=COMPOSITE_CURVE_SEGMENT(.CONTINUOUS.,.T.,#184);
#107=COMPOSITE_CURVE_SEGMENT(.CONTINUOUS.,.T.,#185);
#108=COMPOSITE_CURVE_SEGMENT(.CONTINUOUS.,.T.,#186);
#109=COMPOSITE_CURVE_SEGMENT(.CONTINUOUS.,.T.,#187);
#110=COMPOSITE_CURVE_SEGMENT(.CONTINUOUS.,.T.,#188);
#111=COMPOSITE_CURVE_SEGMENT(.CONTINUOUS.,.T.,#189);
#112=SURFACE_STYLE_USAGE(.BOTH.,#190);
#113=FACE_OUTER_BOUND('',#191,.T.);
#114=CYLINDRICAL_SURFACE('',#192,3.84999999999999);
#115=SURFACE_STYLE_USAGE(.BOTH.,#193);
#116=FACE_OUTER_BOUND('',#194,.T.);
#117=CYLINDRICAL_SURFACE('',#195,4.0);
#118=SURFACE_STYLE_USAGE(.BOTH.,#196);
#119=FACE_OUTER_BOUND('',#197,.T.);
#120=CONICAL_SURFACE('',#198,3.68000000000001,0.785398163397448);
#121=SURFACE_STYLE_USAGE(.BOTH.,#199);
#122=FACE_OUTER_BOUND('',#200,.T.);
#123=PLANE('',#201);
#124=SURFACE_STYLE_USAGE(.BOTH.,#202);
#125=FACE_OUTER_BOUND('',#203,.T.);
#126=CONICAL_SURFACE('',#204,3.68000000000001,0.785398163397448);
#127=SURFACE_STYLE_USAGE(.BOTH.,#205);
#128=FACE_OUTER_BOUND('',#206,.T.);
#129=CYLINDRICAL_SURFACE('',#207,4.0);
#130=SURFACE_STYLE_USAGE(.BOTH.,#208);
#131=FACE_BOUND('',#209,.T.);
#132=FACE_OUTER_BOUND('',#210,.T.);
#133=PLANE('',#211);
#134=SURFACE_STYLE_USAGE(.BOTH.,#212);
#135=FACE_OUTER_BOUND('',#213,.T.);
#136=CYLINDRICAL_SURFACE('',#214,3.84999999999999);
#137=SURFACE_STYLE_USAGE(.BOTH.,#215);
#138=FACE_OUTER_BOUND('',#216,.T.);
#139=PLANE('',#217);
#140=CURVE_STYLE('',#218,POSITIVE_LENGTH_MEASURE(1.0E-06),#219);
#141=COMPOSITE_CURVE_SEGMENT(.CONTINUOUS.,.T.,#220);
#142=COMPOSITE_CURVE_SEGMENT(.CONTINUOUS.,.T.,#221);
#143=COMPOSITE_CURVE_SEGMENT(.CONTINUOUS.,.T.,#222);
#144=COMPOSITE_CURVE_SEGMENT(.CONTINUOUS.,.T.,#223);
#145=COMPOSITE_CURVE_SEGMENT(.CONTINUOUS.,.T.,#224);
#146=SURFACE_STYLE_USAGE(.BOTH.,#225);
#147=FACE_OUTER_BOUND('',#226,.T.);
#148=CYLINDRICAL_SURFACE('',#227,3.99999999999999);
#149=SURFACE_STYLE_USAGE(.BOTH.,#228);
#150=FACE_OUTER_BOUND('',#229,.T.);
#151=TOROIDAL_SURFACE('',#230,3.29999999999998,0.699999999999989);
#152=SURFACE_STYLE_USAGE(.BOTH.,#231);
#153=FACE_OUTER_BOUND('',#232,.T.);
#154=TOROIDAL_SURFACE('',#233,3.29999999999998,0.699999999999989);
#155=SURFACE_STYLE_USAGE(.BOTH.,#234);
#156=FACE_OUTER_BOUND('',#235,.T.);
#157=PLANE('',#236);
#158=SURFACE_STYLE_USAGE(.BOTH.,#237);
#159=FACE_OUTER_BOUND('',#238,.T.);
#160=PLANE('',#239);
#161=SURFACE_STYLE_USAGE(.BOTH.,#240);
#162=FACE_OUTER_BOUND('',#241,.T.);
#163=CYLINDRICAL_SURFACE('',#242,3.99999999999999);
#164=PRODUCT_CONTEXT('',#30,'mechanical');
#165=PRODUCT_DEFINITION_FORMATION_WITH_SPECIFIED_SOURCE(' ','NONE',#81,.NOT_KNOWN.);
#166=CLOSED_SHELL('',(#50,#52,#54,#56,#58,#60,#62,#64,#66));
#167=CARTESIAN_POINT('',(0.0,0.0,0.0));
#168=DIRECTION('',(0.0,0.0,1.0));
#169=DIRECTION('',(1.0,0.0,0.0));
#170=CLOSED_SHELL('',(#70,#72,#74,#76,#78,#80));
#171=CARTESIAN_POINT('',(0.0,0.0,0.0));
#172=DIRECTION('',(0.0,0.0,1.0));
#173=DIRECTION('',(1.0,0.0,0.0));
#174=CARTESIAN_POINT('',(0.0,0.0,0.0));
#175=DIRECTION('',(0.0,0.0,1.0));
#176=DIRECTION('',(1.0,0.0,0.0));
#177= (NAMED_UNIT(#94)LENGTH_UNIT()SI_UNIT(.MILLI.,.METRE.));
#178=DRAUGHTING_PRE_DEFINED_CURVE_FONT('continuous');
#179=COLOUR_RGB('',0.0,1.0,0.0);
#180=TRIMMED_CURVE('',#244,(PARAMETER_VALUE(0.0)),(PARAMETER_VALUE(3.84999999999999)),.T.,.UNSPECIFIED.);
#181=DRAUGHTING_PRE_DEFINED_CURVE_FONT('continuous');
#182=COLOUR_RGB('',0.498039215803146,0.498039215803146,0.498039215803146);
#183=TRIMMED_CURVE('',#245,(PARAMETER_VALUE(0.0)),(PARAMETER_VALUE(32.0)),.T.,.UNSPECIFIED.);
#184=TRIMMED_CURVE('',#246,(PARAMETER_VALUE(0.0)),(PARAMETER_VALUE(0.150000000000006)),.T.,.UNSPECIFIED.);
#185=TRIMMED_CURVE('',#247,(PARAMETER_VALUE(0.0)),(PARAMETER_VALUE(34.36)),.T.,.UNSPECIFIED.);
#186=TRIMMED_CURVE('',#248,(PARAMETER_VALUE(0.0)),(PARAMETER_VALUE(0.905096679918762)),.T.,.UNSPECIFIED.);
#187=TRIMMED_CURVE('',#249,(PARAMETER_VALUE(0.0)),(PARAMETER_VALUE(3.36000000000001)),.T.,.UNSPECIFIED.);
#188=TRIMMED_CURVE('',#250,(PARAMETER_VALUE(0.0)),(PARAMETER_VALUE(67.0)),.T.,.UNSPECIFIED.);
#189=TRIMMED_CURVE('',#251,(PARAMETER_VALUE(0.0)),(PARAMETER_VALUE(3.84999999999999)),.T.,.UNSPECIFIED.);
#190=SURFACE_SIDE_STYLE('',(#252));
#191=EDGE_LOOP('',(#253,#254,#255,#256));
#192=AXIS2_PLACEMENT_3D('',#257,#258,#259);
#193=SURFACE_SIDE_STYLE('',(#260));
#194=EDGE_LOOP('',(#261,#262,#263,#264));
#195=AXIS2_PLACEMENT_3D('',#265,#266,#267);
#196=SURFACE_SIDE_STYLE('',(#268));
#197=EDGE_LOOP('',(#269,#270,#271,#272));
#198=AXIS2_PLACEMENT_3D('',#273,#274,#275);
#199=SURFACE_SIDE_STYLE('',(#276));
#200=EDGE_LOOP('',(#277,#278));
#201=AXIS2_PLACEMENT_3D('',#279,#280,#281);
#202=SURFACE_SIDE_STYLE('',(#282));
#203=EDGE_LOOP('',(#283,#284,#285,#286));
#204=AXIS2_PLACEMENT_3D('',#287,#288,#289);
#205=SURFACE_SIDE_STYLE('',(#290));
#206=EDGE_LOOP('',(#291,#292,#293,#294));
#207=AXIS2_PLACEMENT_3D('',#295,#296,#297);
#208=SURFACE_SIDE_STYLE('',(#298));
#209=EDGE_LOOP('',(#299,#300));
#210=EDGE_LOOP('',(#301,#302));
#211=AXIS2_PLACEMENT_3D('',#303,#304,#305);
#212=SURFACE_SIDE_STYLE('',(#306));
#213=EDGE_LOOP('',(#307,#308,#309,#310));
#214=AXIS2_PLACEMENT_3D('',#311,#312,#313);
#215=SURFACE_SIDE_STYLE('',(#314));
#216=EDGE_LOOP('',(#315,#316));
#217=AXIS2_PLACEMENT_3D('',#317,#318,#319);
#218=DRAUGHTING_PRE_DEFINED_CURVE_FONT('continuous');
#219=COLOUR_RGB('',0.0,0.0,1.0);
#220=TRIMMED_CURVE('',#320,(PARAMETER_VALUE(0.0)),(PARAMETER_VALUE(4.0)),.T.,.UNSPECIFIED.);
#221=TRIMMED_CURVE('',#321,(PARAMETER_VALUE(0.0)),(PARAMETER_VALUE(8.0)),.T.,.UNSPECIFIED.);
#222=TRIMMED_CURVE('',#322,(PARAMETER_VALUE(0.0)),(PARAMETER_VALUE(3.29999999999998)),.T.,.UNSPECIFIED.);
#223=TRIMMED_CURVE('',#323,(PARAMETER_VALUE(-0.785398163397448)),(PARAMETER_VALUE(0.785398163397448)),.T.,.UNSPECIFIED.);
#224=TRIMMED_CURVE('',#324,(PARAMETER_VALUE(0.0)),(PARAMETER_VALUE(7.30000000000001)),.T.,.UNSPECIFIED.);
#225=SURFACE_SIDE_STYLE('',(#325));
#226=EDGE_LOOP('',(#326,#327,#328,#329,#330));
#227=AXIS2_PLACEMENT_3D('',#331,#332,#333);
#228=SURFACE_SIDE_STYLE('',(#334));
#229=EDGE_LOOP('',(#335,#336,#337,#338,#339,#340));
#230=AXIS2_PLACEMENT_3D('',#341,#342,#343);
#231=SURFACE_SIDE_STYLE('',(#344));
#232=EDGE_LOOP('',(#345,#346,#347,#348,#349));
#233=AXIS2_PLACEMENT_3D('',#350,#351,#352);
#234=SURFACE_SIDE_STYLE('',(#353));
#235=EDGE_LOOP('',(#354,#355,#356));
#236=AXIS2_PLACEMENT_3D('',#357,#358,#359);
#237=SURFACE_SIDE_STYLE('',(#360));
#238=EDGE_LOOP('',(#361,#362));
#239=AXIS2_PLACEMENT_3D('',#363,#364,#365);
#240=SURFACE_SIDE_STYLE('',(#366));
#241=EDGE_LOOP('',(#367,#368,#369,#370,#371));
#242=AXIS2_PLACEMENT_3D('',#372,#373,#374);
#244=LINE('',#375,#376);
#245=LINE('',#377,#378);
#246=LINE('',#379,#380);
#247=LINE('',#381,#382);
#248=LINE('',#383,#384);
#249=LINE('',#385,#386);
#250=LINE('',#387,#388);
#251=LINE('',#389,#390);
#252=SURFACE_STYLE_FILL_AREA(#391);
#253=ORIENTED_EDGE('',*,*,#392,.F.);
#254=ORIENTED_EDGE('',*,*,#393,.T.);
#255=ORIENTED_EDGE('',*,*,#394,.F.);
#256=ORIENTED_EDGE('',*,*,#395,.F.);
#257=CARTESIAN_POINT('',(9.79717439317883E-16,0.0,-16.0));
#258=DIRECTION('',(6.12323399573676E-17,0.0,-1.0));
#259=DIRECTION('',(0.0,1.0,0.0));
#260=SURFACE_STYLE_FILL_AREA(#396);
#261=ORIENTED_EDGE('',*,*,#397,.F.);
#262=ORIENTED_EDGE('',*,*,#398,.T.);
#263=ORIENTED_EDGE('',*,*,#399,.F.);
#264=ORIENTED_EDGE('',*,*,#400,.F.);
#265=CARTESIAN_POINT('',(-1.05197160046758E-15,0.0,17.18));
#266=DIRECTION('',(6.12323399573677E-17,0.0,-1.0));
#267=DIRECTION('',(0.0,1.0,0.0));
#268=SURFACE_STYLE_FILL_AREA(#401);
#269=ORIENTED_EDGE('',*,*,#402,.F.);
#270=ORIENTED_EDGE('',*,*,#403,.T.);
#271=ORIENTED_EDGE('',*,*,#404,.F.);
#272=ORIENTED_EDGE('',*,*,#398,.F.);
#273=CARTESIAN_POINT('',(-2.12353754972151E-15,0.0,34.68));
#274=DIRECTION('',(6.12323399573677E-17,-0.0,-1.0));
#275=DIRECTION('',(0.0,1.0,0.0));
#276=SURFACE_STYLE_FILL_AREA(#405);
#277=ORIENTED_EDGE('',*,*,#403,.F.);
#278=ORIENTED_EDGE('',*,*,#406,.F.);
#279=CARTESIAN_POINT('',(-2.14313189850787E-15,1.68000000000001,35.0));
#280=DIRECTION('',(-6.12323399573677E-17,0.0,1.0));
#281=DIRECTION('',(0.0,-1.0,0.0));
#282=SURFACE_STYLE_FILL_AREA(#407);
#283=ORIENTED_EDGE('',*,*,#402,.T.);
#284=ORIENTED_EDGE('',*,*,#408,.F.);
#285=ORIENTED_EDGE('',*,*,#404,.T.);
#286=ORIENTED_EDGE('',*,*,#406,.T.);
#287=CARTESIAN_POINT('',(-2.12353754972151E-15,0.0,34.68));
#288=DIRECTION('',(6.12323399573677E-17,-0.0,-1.0));
#289=DIRECTION('',(0.0,1.0,0.0));
#290=SURFACE_STYLE_FILL_AREA(#409);
#291=ORIENTED_EDGE('',*,*,#397,.T.);
#292=ORIENTED_EDGE('',*,*,#410,.F.);
#293=ORIENTED_EDGE('',*,*,#399,.T.);
#294=ORIENTED_EDGE('',*,*,#408,.T.);
#295=CARTESIAN_POINT('',(-1.05197160046758E-15,0.0,17.18));
#296=DIRECTION('',(6.12323399573677E-17,0.0,-1.0));
#297=DIRECTION('',(0.0,1.0,0.0));
#298=SURFACE_STYLE_FILL_AREA(#411);
#299=ORIENTED_EDGE('',*,*,#393,.F.);
#300=ORIENTED_EDGE('',*,*,#412,.F.);
#301=ORIENTED_EDGE('',*,*,#400,.T.);
#302=ORIENTED_EDGE('',*,*,#410,.T.);
#303=CARTESIAN_POINT('',(0.0,3.925,0.0));
#304=DIRECTION('',(6.12323399573677E-17,0.0,-1.0));
#305=DIRECTION('',(0.0,1.0,0.0));
#306=SURFACE_STYLE_FILL_AREA(#413);
#307=ORIENTED_EDGE('',*,*,#392,.T.);
#308=ORIENTED_EDGE('',*,*,#414,.F.);
#309=ORIENTED_EDGE('',*,*,#394,.T.);
#310=ORIENTED_EDGE('',*,*,#412,.T.);
#311=CARTESIAN_POINT('',(9.79717439317883E-16,0.0,-16.0));
#312=DIRECTION('',(6.12323399573676E-17,0.0,-1.0));
#313=DIRECTION('',(0.0,1.0,0.0));
#314=SURFACE_STYLE_FILL_AREA(#415);
#315=ORIENTED_EDGE('',*,*,#395,.T.);
#316=ORIENTED_EDGE('',*,*,#414,.T.);
#317=CARTESIAN_POINT('',(1.95943487863577E-15,1.925,-32.0));
#318=DIRECTION('',(6.12323399573677E-17,0.0,-1.0));
#319=DIRECTION('',(0.0,1.0,0.0));
#320=LINE('',#416,#417);
#321=LINE('',#418,#419);
#322=LINE('',#420,#421);
#323=CIRCLE('',#422,0.699999999999989);
#324=LINE('',#423,#424);
#325=SURFACE_STYLE_FILL_AREA(#425);
#326=ORIENTED_EDGE('',*,*,#426,.F.);
#327=ORIENTED_EDGE('',*,*,#427,.T.);
#328=ORIENTED_EDGE('',*,*,#428,.F.);
#329=ORIENTED_EDGE('',*,*,#429,.F.);
#330=ORIENTED_EDGE('',*,*,#430,.F.);
#331=CARTESIAN_POINT('',(2.18293291948016E-15,0.0,-35.65));
#332=DIRECTION('',(6.12323399573676E-17,0.0,-1.0));
#333=DIRECTION('',(0.0,1.0,0.0));
#334=SURFACE_STYLE_FILL_AREA(#431);
#335=ORIENTED_EDGE('',*,*,#432,.F.);
#336=ORIENTED_EDGE('',*,*,#433,.T.);
#337=ORIENTED_EDGE('',*,*,#430,.T.);
#338=ORIENTED_EDGE('',*,*,#434,.F.);
#339=ORIENTED_EDGE('',*,*,#435,.F.);
#340=ORIENTED_EDGE('',*,*,#436,.F.);
#341=CARTESIAN_POINT('',(2.40643096032455E-15,0.0,-39.3));
#342=DIRECTION('',(6.12323399573677E-17,0.0,-1.0));
#343=DIRECTION('',(-1.0,0.0,-6.12323399573677E-17));
#344=SURFACE_STYLE_FILL_AREA(#437);
#345=ORIENTED_EDGE('',*,*,#432,.T.);
#346=ORIENTED_EDGE('',*,*,#438,.F.);
#347=ORIENTED_EDGE('',*,*,#434,.T.);
#348=ORIENTED_EDGE('',*,*,#429,.T.);
#349=ORIENTED_EDGE('',*,*,#439,.T.);
#350=CARTESIAN_POINT('',(2.40643096032455E-15,0.0,-39.3));
#351=DIRECTION('',(6.12323399573677E-17,0.0,-1.0));
#352=DIRECTION('',(-1.0,0.0,-6.12323399573677E-17));
#353=SURFACE_STYLE_FILL_AREA(#440);
#354=ORIENTED_EDGE('',*,*,#435,.T.);
#355=ORIENTED_EDGE('',*,*,#438,.T.);
#356=ORIENTED_EDGE('',*,*,#436,.T.);
#357=CARTESIAN_POINT('',(2.44929359829471E-15,1.64999999999999,-40.0));
#358=DIRECTION('',(6.12323399573677E-17,0.0,-1.0));
#359=DIRECTION('',(0.0,1.0,0.0));
#360=SURFACE_STYLE_FILL_AREA(#441);
#361=ORIENTED_EDGE('',*,*,#427,.F.);
#362=ORIENTED_EDGE('',*,*,#442,.F.);
#363=CARTESIAN_POINT('',(1.95943487863577E-15,2.0,-32.0));
#364=DIRECTION('',(-6.12323399573677E-17,0.0,1.0));
#365=DIRECTION('',(0.0,-1.0,0.0));
#366=SURFACE_STYLE_FILL_AREA(#443);
#367=ORIENTED_EDGE('',*,*,#426,.T.);
#368=ORIENTED_EDGE('',*,*,#433,.F.);
#369=ORIENTED_EDGE('',*,*,#439,.F.);
#370=ORIENTED_EDGE('',*,*,#428,.T.);
#371=ORIENTED_EDGE('',*,*,#442,.T.);
#372=CARTESIAN_POINT('',(2.18293291948016E-15,0.0,-35.65));
#373=DIRECTION('',(6.12323399573676E-17,0.0,-1.0));
#374=DIRECTION('',(0.0,1.0,0.0));
#375=CARTESIAN_POINT('',(0.0,3.84999999999999,0.0));
#376=VECTOR('',#444,1.0);
#377=CARTESIAN_POINT('',(1.95943487863577E-15,3.84999999999999,-32.0));
#378=VECTOR('',#445,1.0);
#379=CARTESIAN_POINT('',(0.0,3.84999999999999,0.0));
#380=VECTOR('',#446,1.0);
#381=CARTESIAN_POINT('',(0.0,4.0,0.0));
#382=VECTOR('',#447,1.0);
#383=CARTESIAN_POINT('',(-2.10394320093516E-15,4.0,34.36));
#384=VECTOR('',#448,1.0);
#385=CARTESIAN_POINT('',(-2.14313189850787E-15,3.36000000000001,35.0));
#386=VECTOR('',#449,1.0);
#387=CARTESIAN_POINT('',(-2.14313189850787E-15,0.0,35.0));
#388=VECTOR('',#450,1.0);
#389=CARTESIAN_POINT('',(1.95943487863577E-15,0.0,-32.0));
#390=VECTOR('',#451,1.0);
#391=FILL_AREA_STYLE('',(#452));
#392=EDGE_CURVE('',#453,#454,#455,.T.);
#393=EDGE_CURVE('',#453,#456,#457,.T.);
#394=EDGE_CURVE('',#458,#456,#459,.T.);
#395=EDGE_CURVE('',#454,#458,#460,.T.);
#396=FILL_AREA_STYLE('',(#461));
#397=EDGE_CURVE('',#462,#463,#464,.T.);
#398=EDGE_CURVE('',#462,#465,#466,.T.);
#399=EDGE_CURVE('',#467,#465,#468,.T.);
#400=EDGE_CURVE('',#463,#467,#469,.T.);
#401=FILL_AREA_STYLE('',(#470));
#402=EDGE_CURVE('',#471,#462,#472,.T.);
#403=EDGE_CURVE('',#471,#473,#474,.T.);
#404=EDGE_CURVE('',#465,#473,#475,.T.);
#405=FILL_AREA_STYLE('',(#476));
#406=EDGE_CURVE('',#473,#471,#477,.T.);
#407=FILL_AREA_STYLE('',(#478));
#408=EDGE_CURVE('',#465,#462,#479,.T.);
#409=FILL_AREA_STYLE('',(#480));
#410=EDGE_CURVE('',#467,#463,#481,.T.);
#411=FILL_AREA_STYLE('',(#482));
#412=EDGE_CURVE('',#456,#453,#483,.T.);
#413=FILL_AREA_STYLE('',(#484));
#414=EDGE_CURVE('',#458,#454,#485,.T.);
#415=FILL_AREA_STYLE('',(#486));
#416=CARTESIAN_POINT('',(1.95943487863577E-15,4.0,-32.0));
#417=VECTOR('',#487,1.0);
#418=CARTESIAN_POINT('',(1.95943487863577E-15,0.0,-32.0));
#419=VECTOR('',#488,1.0);
#420=CARTESIAN_POINT('',(2.44929359829471E-15,0.0,-40.0));
#421=VECTOR('',#489,1.0);
#422=AXIS2_PLACEMENT_3D('',#490,#491,#492);
#423=CARTESIAN_POINT('',(2.40643096032455E-15,3.99999999999997,-39.3));
#424=VECTOR('',#493,1.0);
#425=FILL_AREA_STYLE('',(#494));
#426=EDGE_CURVE('',#495,#496,#497,.T.);
#427=EDGE_CURVE('',#495,#498,#499,.T.);
#428=EDGE_CURVE('',#500,#498,#501,.T.);
#429=EDGE_CURVE('',#502,#500,#503,.T.);
#430=EDGE_CURVE('',#496,#502,#504,.T.);
#431=FILL_AREA_STYLE('',(#505));
#432=EDGE_CURVE('',#506,#507,#508,.T.);
#433=EDGE_CURVE('',#506,#496,#509,.T.);
#434=EDGE_CURVE('',#510,#502,#511,.T.);
#435=EDGE_CURVE('',#512,#510,#513,.T.);
#436=EDGE_CURVE('',#507,#512,#514,.T.);
#437=FILL_AREA_STYLE('',(#515));
#438=EDGE_CURVE('',#510,#507,#516,.T.);
#439=EDGE_CURVE('',#500,#506,#517,.T.);
#440=FILL_AREA_STYLE('',(#518));
#441=FILL_AREA_STYLE('',(#519));
#442=EDGE_CURVE('',#498,#495,#520,.T.);
#443=FILL_AREA_STYLE('',(#521));
#444=DIRECTION('',(0.0,-1.0,0.0));
#445=DIRECTION('',(-6.12323399573677E-17,0.0,1.0));
#446=DIRECTION('',(0.0,1.0,0.0));
#447=DIRECTION('',(-6.12323399573677E-17,0.0,1.0));
#448=DIRECTION('',(-4.32978028117746E-17,-0.707106781186548,0.707106781186548));
#449=DIRECTION('',(0.0,-1.0,0.0));
#450=DIRECTION('',(6.12323399573677E-17,0.0,-1.0));
#451=DIRECTION('',(0.0,1.0,0.0));
#452=FILL_AREA_STYLE_COLOUR('',#522);
#453=VERTEX_POINT('',#523);
#454=VERTEX_POINT('',#524);
#455=LINE('',#525,#526);
#456=VERTEX_POINT('',#527);
#457=CIRCLE('',#528,3.84999999999999);
#458=VERTEX_POINT('',#529);
#459=LINE('',#530,#531);
#460=CIRCLE('',#532,3.84999999999999);
#461=FILL_AREA_STYLE_COLOUR('',#533);
#462=VERTEX_POINT('',#534);
#463=VERTEX_POINT('',#535);
#464=LINE('',#536,#537);
#465=VERTEX_POINT('',#538);
#466=CIRCLE('',#539,4.0);
#467=VERTEX_POINT('',#540);
#468=LINE('',#541,#542);
#469=CIRCLE('',#543,4.0);
#470=FILL_AREA_STYLE_COLOUR('',#544);
#471=VERTEX_POINT('',#545);
#472=LINE('',#546,#547);
#473=VERTEX_POINT('',#548);
#474=CIRCLE('',#549,3.36000000000001);
#475=LINE('',#550,#551);
#476=FILL_AREA_STYLE_COLOUR('',#552);
#477=CIRCLE('',#553,3.36000000000001);
#478=FILL_AREA_STYLE_COLOUR('',#554);
#479=CIRCLE('',#555,4.0);
#480=FILL_AREA_STYLE_COLOUR('',#556);
#481=CIRCLE('',#557,4.0);
#482=FILL_AREA_STYLE_COLOUR('',#558);
#483=CIRCLE('',#559,3.84999999999999);
#484=FILL_AREA_STYLE_COLOUR('',#560);
#485=CIRCLE('',#561,3.84999999999999);
#486=FILL_AREA_STYLE_COLOUR('',#562);
#487=DIRECTION('',(0.0,-1.0,0.0));
#488=DIRECTION('',(6.12323399573677E-17,0.0,-1.0));
#489=DIRECTION('',(0.0,1.0,0.0));
#490=CARTESIAN_POINT('',(2.40643096032455E-15,3.29999999999998,-39.3));
#491=DIRECTION('',(1.0,0.0,6.12323399573676E-17));
#492=DIRECTION('',(4.32978028117747E-17,0.707106781186548,-0.707106781186548));
#493=DIRECTION('',(-6.12323399573677E-17,3.89338485348E-15,1.0));
#494=FILL_AREA_STYLE_COLOUR('',#563);
#495=VERTEX_POINT('',#564);
#496=VERTEX_POINT('',#565);
#497=LINE('',#566,#567);
#498=VERTEX_POINT('',#568);
#499=CIRCLE('',#569,4.0);
#500=VERTEX_POINT('',#570);
#501=LINE('',#571,#572);
#502=VERTEX_POINT('',#573);
#503=CIRCLE('',#574,3.99999999999997);
#504=CIRCLE('',#575,3.99999999999997);
#505=FILL_AREA_STYLE_COLOUR('',#576);
#506=VERTEX_POINT('',#577);
#507=VERTEX_POINT('',#578);
#508=CIRCLE('',#579,0.699999999999989);
#509=CIRCLE('',#580,3.99999999999997);
#510=VERTEX_POINT('',#581);
#511=CIRCLE('',#582,0.699999999999989);
#512=VERTEX_POINT('',#583);
#513=CIRCLE('',#584,3.29999999999998);
#514=CIRCLE('',#585,3.29999999999998);
#515=FILL_AREA_STYLE_COLOUR('',#586);
#516=CIRCLE('',#587,3.29999999999998);
#517=CIRCLE('',#588,3.99999999999997);
#518=FILL_AREA_STYLE_COLOUR('',#589);
#519=FILL_AREA_STYLE_COLOUR('',#590);
#520=CIRCLE('',#591,4.0);
#521=FILL_AREA_STYLE_COLOUR('',#592);
#522=COLOUR_RGB('',0.498039215803146,0.498039215803146,0.498039215803146);
#523=CARTESIAN_POINT('',(0.0,3.84999999999999,0.0));
#524=CARTESIAN_POINT('',(1.95943487863577E-15,3.84999999999999,-32.0));
#525=CARTESIAN_POINT('',(5.08228421646153E-16,3.84999999999999,-16.0));
#526=VECTOR('',#593,1.0);
#527=CARTESIAN_POINT('',(4.71489017671731E-16,-3.84999999999999,2.88703758162407E-32));
#528=AXIS2_PLACEMENT_3D('',#594,#595,#596);
#529=CARTESIAN_POINT('',(2.4309238963075E-15,-3.84999999999999,-32.0));
#530=CARTESIAN_POINT('',(1.45120645698961E-15,-3.84999999999999,-16.0));
#531=VECTOR('',#597,1.0);
#532=AXIS2_PLACEMENT_3D('',#598,#599,#600);
#533=COLOUR_RGB('',0.498039215803146,0.498039215803146,0.498039215803146);
#534=CARTESIAN_POINT('',(-2.10394320093516E-15,4.0,34.36));
#535=CARTESIAN_POINT('',(0.0,4.0,0.0));
#536=CARTESIAN_POINT('',(-1.54183032012652E-15,4.0,17.18));
#537=VECTOR('',#601,1.0);
#538=CARTESIAN_POINT('',(-1.61408448127621E-15,-4.0,34.36));
#539=AXIS2_PLACEMENT_3D('',#602,#603,#604);
#540=CARTESIAN_POINT('',(4.89858719658941E-16,-4.0,2.99951956532371E-32));
#541=CARTESIAN_POINT('',(-5.62112880808637E-16,-4.0,17.18));
#542=VECTOR('',#605,1.0);
#543=AXIS2_PLACEMENT_3D('',#606,#607,#608);
#544=COLOUR_RGB('',0.498039215803146,0.498039215803146,0.498039215803146);
#545=CARTESIAN_POINT('',(-2.14313189850787E-15,3.36000000000001,35.0));
#546=CARTESIAN_POINT('',(-2.57420757180774E-15,3.68000000000001,34.68));
#547=VECTOR('',#609,1.0);
#548=CARTESIAN_POINT('',(-1.73165057399436E-15,-3.36000000000001,35.0));
#549=AXIS2_PLACEMENT_3D('',#610,#611,#612);
#550=CARTESIAN_POINT('',(-1.67286752763529E-15,-3.68000000000001,34.68));
#551=VECTOR('',#613,1.0);
#552=COLOUR_RGB('',0.498039215803146,0.498039215803146,0.498039215803146);
#553=AXIS2_PLACEMENT_3D('',#614,#615,#616);
#554=COLOUR_RGB('',0.498039215803146,0.498039215803146,0.498039215803146);
#555=AXIS2_PLACEMENT_3D('',#617,#618,#619);
#556=COLOUR_RGB('',0.498039215803146,0.498039215803146,0.498039215803146);
#557=AXIS2_PLACEMENT_3D('',#620,#621,#622);
#558=COLOUR_RGB('',0.498039215803146,0.498039215803146,0.498039215803146);
#559=AXIS2_PLACEMENT_3D('',#623,#624,#625);
#560=COLOUR_RGB('',0.498039215803146,0.498039215803146,0.498039215803146);
#561=AXIS2_PLACEMENT_3D('',#626,#627,#628);
#562=COLOUR_RGB('',0.498039215803146,0.498039215803146,0.498039215803146);
#563=COLOUR_RGB('',0.800000011920929,0.800000011920929,0.800000011920929);
#564=CARTESIAN_POINT('',(1.95943487863577E-15,4.0,-32.0));
#565=CARTESIAN_POINT('',(2.40643096032455E-15,3.99999999999997,-39.3));
#566=CARTESIAN_POINT('',(1.69307419982122E-15,3.99999999999999,-35.65));
#567=VECTOR('',#629,1.0);
#568=CARTESIAN_POINT('',(2.44929359829471E-15,-4.0,-32.0));
#569=AXIS2_PLACEMENT_3D('',#630,#631,#632);
#570=CARTESIAN_POINT('',(2.89628967998349E-15,-3.99999999999997,-39.3));
#571=CARTESIAN_POINT('',(2.6727916391391E-15,-3.99999999999999,-35.65));
#572=VECTOR('',#633,1.0);
#573=CARTESIAN_POINT('',(3.99999999999997,4.89858719658938E-16,-39.3));
#574=AXIS2_PLACEMENT_3D('',#634,#635,#636);
#575=AXIS2_PLACEMENT_3D('',#637,#638,#639);
#576=COLOUR_RGB('',0.800000011920929,0.800000011920929,0.800000011920929);
#577=CARTESIAN_POINT('',(-3.99999999999997,-4.89858719658938E-16,-39.3));
#578=CARTESIAN_POINT('',(-3.29999999999998,-4.04133443718624E-16,-40.0));
#579=AXIS2_PLACEMENT_3D('',#640,#641,#642);
#580=AXIS2_PLACEMENT_3D('',#643,#644,#645);
#581=CARTESIAN_POINT('',(3.29999999999999,4.04133443718624E-16,-40.0));
#582=AXIS2_PLACEMENT_3D('',#646,#647,#648);
#583=CARTESIAN_POINT('',(2.44929359829471E-15,3.29999999999998,-40.0));
#584=AXIS2_PLACEMENT_3D('',#649,#650,#651);
#585=AXIS2_PLACEMENT_3D('',#652,#653,#654);
#586=COLOUR_RGB('',0.800000011920929,0.800000011920929,0.800000011920929);
#587=AXIS2_PLACEMENT_3D('',#655,#656,#657);
#588=AXIS2_PLACEMENT_3D('',#658,#659,#660);
#589=COLOUR_RGB('',0.800000011920929,0.800000011920929,0.800000011920929);
#590=COLOUR_RGB('',0.800000011920929,0.800000011920929,0.800000011920929);
#591=AXIS2_PLACEMENT_3D('',#661,#662,#663);
#592=COLOUR_RGB('',0.800000011920929,0.800000011920929,0.800000011920929);
#593=DIRECTION('',(6.12323399573676E-17,0.0,-1.0));
#594=CARTESIAN_POINT('',(0.0,0.0,0.0));
#595=DIRECTION('',(6.12323399573676E-17,0.0,-1.0));
#596=DIRECTION('',(0.0,1.0,0.0));
#597=DIRECTION('',(-6.12323399573676E-17,-0.0,1.0));
#598=CARTESIAN_POINT('',(1.95943487863577E-15,0.0,-32.0));
#599=DIRECTION('',(6.12323399573676E-17,0.0,-1.0));
#600=DIRECTION('',(0.0,1.0,0.0));
#601=DIRECTION('',(6.12323399573677E-17,0.0,-1.0));
#602=CARTESIAN_POINT('',(-2.10394320093516E-15,0.0,34.36));
#603=DIRECTION('',(6.12323399573677E-17,0.0,-1.0));
#604=DIRECTION('',(0.0,1.0,0.0));
#605=DIRECTION('',(-6.12323399573677E-17,-0.0,1.0));
#606=CARTESIAN_POINT('',(0.0,0.0,0.0));
#607=DIRECTION('',(6.12323399573677E-17,0.0,-1.0));
#608=DIRECTION('',(0.0,1.0,0.0));
#609=DIRECTION('',(-4.32978028117747E-17,0.707106781186548,-0.707106781186548));
#610=CARTESIAN_POINT('',(-2.14313189850787E-15,0.0,35.0));
#611=DIRECTION('',(6.12323399573676E-17,0.0,-1.0));
#612=DIRECTION('',(0.0,1.0,0.0));
#613=DIRECTION('',(-1.29893408435324E-16,0.707106781186548,0.707106781186548));
#614=CARTESIAN_POINT('',(-2.14313189850787E-15,0.0,35.0));
#615=DIRECTION('',(6.12323399573676E-17,0.0,-1.0));
#616=DIRECTION('',(0.0,1.0,0.0));
#617=CARTESIAN_POINT('',(-2.10394320093516E-15,0.0,34.36));
#618=DIRECTION('',(6.12323399573677E-17,0.0,-1.0));
#619=DIRECTION('',(0.0,1.0,0.0));
#620=CARTESIAN_POINT('',(0.0,0.0,0.0));
#621=DIRECTION('',(6.12323399573677E-17,0.0,-1.0));
#622=DIRECTION('',(0.0,1.0,0.0));
#623=CARTESIAN_POINT('',(0.0,0.0,0.0));
#624=DIRECTION('',(6.12323399573676E-17,0.0,-1.0));
#625=DIRECTION('',(0.0,1.0,0.0));
#626=CARTESIAN_POINT('',(1.95943487863577E-15,0.0,-32.0));
#627=DIRECTION('',(6.12323399573676E-17,0.0,-1.0));
#628=DIRECTION('',(0.0,1.0,0.0));
#629=DIRECTION('',(6.12323399573677E-17,0.0,-1.0));
#630=CARTESIAN_POINT('',(1.95943487863577E-15,0.0,-32.0));
#631=DIRECTION('',(6.12323399573677E-17,0.0,-1.0));
#632=DIRECTION('',(0.0,1.0,0.0));
#633=DIRECTION('',(-6.12323399573677E-17,-0.0,1.0));
#634=CARTESIAN_POINT('',(2.40643096032455E-15,0.0,-39.3));
#635=DIRECTION('',(6.12323399573677E-17,0.0,-1.0));
#636=DIRECTION('',(0.0,1.0,0.0));
#637=CARTESIAN_POINT('',(2.40643096032455E-15,0.0,-39.3));
#638=DIRECTION('',(6.12323399573677E-17,0.0,-1.0));
#639=DIRECTION('',(0.0,1.0,0.0));
#640=CARTESIAN_POINT('',(-3.29999999999998,-4.04133443718624E-16,-39.3));
#641=DIRECTION('',(1.22464679914735E-16,-1.0,7.49879891330929E-33));
#642=DIRECTION('',(-1.0,-1.22464679914735E-16,-6.12323399573677E-17));
#643=CARTESIAN_POINT('',(2.40643096032455E-15,0.0,-39.3));
#644=DIRECTION('',(6.12323399573677E-17,0.0,-1.0));
#645=DIRECTION('',(0.0,1.0,0.0));
#646=CARTESIAN_POINT('',(3.29999999999999,4.04133443718624E-16,-39.3));
#647=DIRECTION('',(1.22464679914735E-16,-1.0,7.49879891330929E-33));
#648=DIRECTION('',(1.0,1.22464679914735E-16,6.12323399573677E-17));
#649=CARTESIAN_POINT('',(2.44929359829471E-15,0.0,-40.0));
#650=DIRECTION('',(6.12323399573677E-17,0.0,-1.0));
#651=DIRECTION('',(0.0,1.0,0.0));
#652=CARTESIAN_POINT('',(2.44929359829471E-15,0.0,-40.0));
#653=DIRECTION('',(6.12323399573677E-17,0.0,-1.0));
#654=DIRECTION('',(0.0,1.0,0.0));
#655=CARTESIAN_POINT('',(2.44929359829471E-15,0.0,-40.0));
#656=DIRECTION('',(6.12323399573677E-17,0.0,-1.0));
#657=DIRECTION('',(0.0,1.0,0.0));
#658=CARTESIAN_POINT('',(2.40643096032455E-15,0.0,-39.3));
#659=DIRECTION('',(6.12323399573677E-17,0.0,-1.0));
#660=DIRECTION('',(0.0,1.0,0.0));
#661=CARTESIAN_POINT('',(1.95943487863577E-15,0.0,-32.0));
#662=DIRECTION('',(6.12323399573677E-17,0.0,-1.0));
#663=DIRECTION('',(0.0,1.0,0.0));
#664=DIRECTION('',(0.0,0.0,1.0));
#665=DIRECTION('',(1.0,0.0,0.0));
#666=CARTESIAN_POINT('',(0.0,0.0,35.000000));
#667=AXIS2_PLACEMENT_3D('PCS', #666,#664,#665);
#668=CARTESIAN_POINT('',(0.0,0.0,0.000000));
#669=AXIS2_PLACEMENT_3D('MCS', #668,#664,#665);
#670=CARTESIAN_POINT('',(0.0,0.0,-40.000000));
#671=AXIS2_PLACEMENT_3D('CIP', #670,#664,#665);
ENDSEC;
END-ISO-10303-21;
