ISO-10303-21;
HEADER;
FILE_DESCRIPTION(('STEP AP214'),'1');
FILE_NAME('607893781-000-00-E43.stp','2023-01-18T14:26:20',(' '),(' '),'Spatial InterOp 3D',' ',' ');
FILE_SCHEMA(('AUTOMOTIVE_DESIGN { 1 0 10303 214 1 1 1 1 }'));
ENDSEC;
DATA;
#1=MECHANICAL_DESIGN_GEOMETRIC_PRESENTATION_REPRESENTATION(' ',(#12,#13,#14,#15,#16,#17,#18,#19,#20,#21,#22,#23,#24),#8);
#2=PRODUCT_DEFINITION_CONTEXT('',#25,'design');
#3=APPLICATION_PROTOCOL_DEFINITION('INTERNATIONAL STANDARD','automotive_design',1994,#25);
#4=PRODUCT_CATEGORY_RELATIONSHIP('NONE','NONE',#26,#27);
#5=SHAPE_DEFINITION_REPRESENTATION(#28,#29);
#6=SHAPE_DEFINITION_REPRESENTATION(#28,#30);
#7=SHAPE_DEFINITION_REPRESENTATION(#28,#31);
#8= (GEOMETRIC_REPRESENTATION_CONTEXT(3)GLOBAL_UNCERTAINTY_ASSIGNED_CONTEXT((#34))GLOBAL_UNIT_ASSIGNED_CONTEXT((#36,#37,#38))REPRESENTATION_CONTEXT('NONE','WORKSPACE'));
#12=STYLED_ITEM('',(#40),#41);
#13=STYLED_ITEM('',(#42),#43);
#14=STYLED_ITEM('',(#44),#45);
#15=STYLED_ITEM('',(#46),#47);
#16=STYLED_ITEM('',(#48),#49);
#17=STYLED_ITEM('',(#50),#51);
#18=STYLED_ITEM('',(#52),#53);
#19=STYLED_ITEM('',(#54),#55);
#20=STYLED_ITEM('',(#56),#57);
#21=STYLED_ITEM('',(#58),#59);
#22=STYLED_ITEM('',(#60),#61);
#23=STYLED_ITEM('',(#62),#63);
#24=STYLED_ITEM('',(#64),#65);
#25=APPLICATION_CONTEXT(' ');
#26=PRODUCT_CATEGORY('part','NONE');
#27=PRODUCT_RELATED_PRODUCT_CATEGORY('detail',' ',(#66));
#28=PRODUCT_DEFINITION_SHAPE('NONE','NONE',#67);
#29=ADVANCED_BREP_SHAPE_REPRESENTATION('1',(#68,#69),#8);
#30=ADVANCED_BREP_SHAPE_REPRESENTATION('2',(#70,#71),#8);
#31=GEOMETRICALLY_BOUNDED_SURFACE_SHAPE_REPRESENTATION('3',(#72,#73),#8);
#34=UNCERTAINTY_MEASURE_WITH_UNIT(LENGTH_MEASURE(1.0E-06),#36,'','');
#36= (CONVERSION_BASED_UNIT('MILLIMETRE',#76)LENGTH_UNIT()NAMED_UNIT(#79));
#37= (NAMED_UNIT(#81)PLANE_ANGLE_UNIT()SI_UNIT($,.RADIAN.));
#38= (NAMED_UNIT(#81)SOLID_ANGLE_UNIT()SI_UNIT($,.STERADIAN.));
#40=PRESENTATION_STYLE_ASSIGNMENT((#87));
#41=COMPOSITE_CURVE('',(#88),.U.);
#42=PRESENTATION_STYLE_ASSIGNMENT((#89));
#43=COMPOSITE_CURVE('',(#90,#91,#92,#93,#94),.U.);
#44=PRESENTATION_STYLE_ASSIGNMENT((#95));
#45=ADVANCED_FACE('',(#96),#97,.T.);
#46=PRESENTATION_STYLE_ASSIGNMENT((#98));
#47=ADVANCED_FACE('',(#99),#100,.T.);
#48=PRESENTATION_STYLE_ASSIGNMENT((#101));
#49=ADVANCED_FACE('',(#102),#103,.T.);
#50=PRESENTATION_STYLE_ASSIGNMENT((#104));
#51=ADVANCED_FACE('',(#105),#106,.T.);
#52=PRESENTATION_STYLE_ASSIGNMENT((#107));
#53=ADVANCED_FACE('',(#108),#109,.T.);
#54=PRESENTATION_STYLE_ASSIGNMENT((#110));
#55=ADVANCED_FACE('',(#111),#112,.T.);
#56=PRESENTATION_STYLE_ASSIGNMENT((#113));
#57=COMPOSITE_CURVE('',(#114,#115,#116,#117),.U.);
#58=PRESENTATION_STYLE_ASSIGNMENT((#118));
#59=ADVANCED_FACE('',(#119),#120,.T.);
#60=PRESENTATION_STYLE_ASSIGNMENT((#121));
#61=ADVANCED_FACE('',(#122),#123,.T.);
#62=PRESENTATION_STYLE_ASSIGNMENT((#124));
#63=ADVANCED_FACE('',(#125),#126,.T.);
#64=PRESENTATION_STYLE_ASSIGNMENT((#127));
#65=ADVANCED_FACE('',(#128),#129,.T.);
#66=PRODUCT('1','','PART--DESC',(#130));
#67=PRODUCT_DEFINITION('','NONE',#131,#2);
#68=MANIFOLD_SOLID_BREP('1',#132);
#69=AXIS2_PLACEMENT_3D('',#133,#134,#135);
#70=MANIFOLD_SOLID_BREP('2',#136);
#71=AXIS2_PLACEMENT_3D('',#137,#138,#139);
#72=GEOMETRIC_SET('3',(#41,#43,#57));
#73=AXIS2_PLACEMENT_3D('',#140,#141,#142);
#76=LENGTH_MEASURE_WITH_UNIT(LENGTH_MEASURE(1.0),#143);
#79=DIMENSIONAL_EXPONENTS(1.0,0.0,0.0,0.0,0.0,0.0,0.0);
#81=DIMENSIONAL_EXPONENTS(0.0,0.0,0.0,0.0,0.0,0.0,0.0);
#87=CURVE_STYLE('',#144,POSITIVE_LENGTH_MEASURE(1.0E-06),#145);
#88=COMPOSITE_CURVE_SEGMENT(.CONTINUOUS.,.T.,#146);
#89=CURVE_STYLE('',#147,POSITIVE_LENGTH_MEASURE(1.0E-06),#148);
#90=COMPOSITE_CURVE_SEGMENT(.CONTINUOUS.,.T.,#149);
#91=COMPOSITE_CURVE_SEGMENT(.CONTINUOUS.,.T.,#150);
#92=COMPOSITE_CURVE_SEGMENT(.CONTINUOUS.,.T.,#151);
#93=COMPOSITE_CURVE_SEGMENT(.CONTINUOUS.,.T.,#152);
#94=COMPOSITE_CURVE_SEGMENT(.CONTINUOUS.,.T.,#153);
#95=SURFACE_STYLE_USAGE(.BOTH.,#154);
#96=FACE_OUTER_BOUND('',#155,.T.);
#97=CYLINDRICAL_SURFACE('',#156,8.00000000000006);
#98=SURFACE_STYLE_USAGE(.BOTH.,#157);
#99=FACE_OUTER_BOUND('',#158,.T.);
#100=CONICAL_SURFACE('',#159,7.40000000000003,0.78539816339746);
#101=SURFACE_STYLE_USAGE(.BOTH.,#160);
#102=FACE_OUTER_BOUND('',#161,.T.);
#103=PLANE('',#162);
#104=SURFACE_STYLE_USAGE(.BOTH.,#163);
#105=FACE_OUTER_BOUND('',#164,.T.);
#106=CONICAL_SURFACE('',#165,7.40000000000003,0.78539816339746);
#107=SURFACE_STYLE_USAGE(.BOTH.,#166);
#108=FACE_OUTER_BOUND('',#167,.T.);
#109=CYLINDRICAL_SURFACE('',#168,8.00000000000006);
#110=SURFACE_STYLE_USAGE(.BOTH.,#169);
#111=FACE_OUTER_BOUND('',#170,.T.);
#112=PLANE('',#171);
#113=CURVE_STYLE('',#172,POSITIVE_LENGTH_MEASURE(1.0E-06),#173);
#114=COMPOSITE_CURVE_SEGMENT(.CONTINUOUS.,.T.,#174);
#115=COMPOSITE_CURVE_SEGMENT(.CONTINUOUS.,.T.,#175);
#116=COMPOSITE_CURVE_SEGMENT(.CONTINUOUS.,.T.,#176);
#117=COMPOSITE_CURVE_SEGMENT(.CONTINUOUS.,.T.,#177);
#118=SURFACE_STYLE_USAGE(.BOTH.,#178);
#119=FACE_OUTER_BOUND('',#179,.T.);
#120=CYLINDRICAL_SURFACE('',#180,8.00000000000006);
#121=SURFACE_STYLE_USAGE(.BOTH.,#181);
#122=FACE_OUTER_BOUND('',#182,.T.);
#123=PLANE('',#183);
#124=SURFACE_STYLE_USAGE(.BOTH.,#184);
#125=FACE_OUTER_BOUND('',#185,.T.);
#126=CYLINDRICAL_SURFACE('',#186,8.00000000000006);
#127=SURFACE_STYLE_USAGE(.BOTH.,#187);
#128=FACE_OUTER_BOUND('',#188,.T.);
#129=PLANE('',#189);
#130=PRODUCT_CONTEXT('',#25,'mechanical');
#131=PRODUCT_DEFINITION_FORMATION_WITH_SPECIFIED_SOURCE(' ','NONE',#66,.NOT_KNOWN.);
#132=CLOSED_SHELL('',(#45,#47,#49,#51,#53,#55));
#133=CARTESIAN_POINT('',(0.0,0.0,0.0));
#134=DIRECTION('',(0.0,0.0,1.0));
#135=DIRECTION('',(1.0,0.0,0.0));
#136=CLOSED_SHELL('',(#59,#61,#63,#65));
#137=CARTESIAN_POINT('',(0.0,0.0,0.0));
#138=DIRECTION('',(0.0,0.0,1.0));
#139=DIRECTION('',(1.0,0.0,0.0));
#140=CARTESIAN_POINT('',(0.0,0.0,0.0));
#141=DIRECTION('',(0.0,0.0,1.0));
#142=DIRECTION('',(1.0,0.0,0.0));
#143= (NAMED_UNIT(#79)LENGTH_UNIT()SI_UNIT(.MILLI.,.METRE.));
#144=DRAUGHTING_PRE_DEFINED_CURVE_FONT('continuous');
#145=COLOUR_RGB('',0.0,1.0,0.0);
#146=TRIMMED_CURVE('',#191,(PARAMETER_VALUE(0.0)),(PARAMETER_VALUE(8.0)),.T.,.UNSPECIFIED.);
#147=DRAUGHTING_PRE_DEFINED_CURVE_FONT('continuous');
#148=COLOUR_RGB('',0.498039215803146,0.498039215803146,0.498039215803146);
#149=TRIMMED_CURVE('',#192,(PARAMETER_VALUE(0.0)),(PARAMETER_VALUE(8.00000000000002)),.T.,.UNSPECIFIED.);
#150=TRIMMED_CURVE('',#193,(PARAMETER_VALUE(0.0)),(PARAMETER_VALUE(58.8)),.T.,.UNSPECIFIED.);
#151=TRIMMED_CURVE('',#194,(PARAMETER_VALUE(0.0)),(PARAMETER_VALUE(1.69705627484776)),.T.,.UNSPECIFIED.);
#152=TRIMMED_CURVE('',#195,(PARAMETER_VALUE(0.0)),(PARAMETER_VALUE(6.80000000000001)),.T.,.UNSPECIFIED.);
#153=TRIMMED_CURVE('',#196,(PARAMETER_VALUE(0.0)),(PARAMETER_VALUE(60.0)),.T.,.UNSPECIFIED.);
#154=SURFACE_SIDE_STYLE('',(#197));
#155=EDGE_LOOP('',(#198,#199,#200,#201));
#156=AXIS2_PLACEMENT_3D('',#202,#203,#204);
#157=SURFACE_SIDE_STYLE('',(#205));
#158=EDGE_LOOP('',(#206,#207,#208,#209));
#159=AXIS2_PLACEMENT_3D('',#210,#211,#212);
#160=SURFACE_SIDE_STYLE('',(#213));
#161=EDGE_LOOP('',(#214,#215));
#162=AXIS2_PLACEMENT_3D('',#216,#217,#218);
#163=SURFACE_SIDE_STYLE('',(#219));
#164=EDGE_LOOP('',(#220,#221,#222,#223));
#165=AXIS2_PLACEMENT_3D('',#224,#225,#226);
#166=SURFACE_SIDE_STYLE('',(#227));
#167=EDGE_LOOP('',(#228,#229,#230,#231));
#168=AXIS2_PLACEMENT_3D('',#232,#233,#234);
#169=SURFACE_SIDE_STYLE('',(#235));
#170=EDGE_LOOP('',(#236,#237));
#171=AXIS2_PLACEMENT_3D('',#238,#239,#240);
#172=DRAUGHTING_PRE_DEFINED_CURVE_FONT('continuous');
#173=COLOUR_RGB('',0.0,0.0,1.0);
#174=TRIMMED_CURVE('',#241,(PARAMETER_VALUE(0.0)),(PARAMETER_VALUE(8.0)),.T.,.UNSPECIFIED.);
#175=TRIMMED_CURVE('',#242,(PARAMETER_VALUE(0.0)),(PARAMETER_VALUE(48.0)),.T.,.UNSPECIFIED.);
#176=TRIMMED_CURVE('',#243,(PARAMETER_VALUE(0.0)),(PARAMETER_VALUE(8.00000000000002)),.T.,.UNSPECIFIED.);
#177=TRIMMED_CURVE('',#244,(PARAMETER_VALUE(0.0)),(PARAMETER_VALUE(48.0000000000001)),.T.,.UNSPECIFIED.);
#178=SURFACE_SIDE_STYLE('',(#245));
#179=EDGE_LOOP('',(#246,#247,#248,#249));
#180=AXIS2_PLACEMENT_3D('',#250,#251,#252);
#181=SURFACE_SIDE_STYLE('',(#253));
#182=EDGE_LOOP('',(#254,#255));
#183=AXIS2_PLACEMENT_3D('',#256,#257,#258);
#184=SURFACE_SIDE_STYLE('',(#259));
#185=EDGE_LOOP('',(#260,#261,#262,#263));
#186=AXIS2_PLACEMENT_3D('',#264,#265,#266);
#187=SURFACE_SIDE_STYLE('',(#267));
#188=EDGE_LOOP('',(#268,#269));
#189=AXIS2_PLACEMENT_3D('',#270,#271,#272);
#191=LINE('',#273,#274);
#192=LINE('',#275,#276);
#193=LINE('',#277,#278);
#194=LINE('',#279,#280);
#195=LINE('',#281,#282);
#196=LINE('',#283,#284);
#197=SURFACE_STYLE_FILL_AREA(#285);
#198=ORIENTED_EDGE('',*,*,#286,.F.);
#199=ORIENTED_EDGE('',*,*,#287,.T.);
#200=ORIENTED_EDGE('',*,*,#288,.F.);
#201=ORIENTED_EDGE('',*,*,#289,.F.);
#202=CARTESIAN_POINT('',(-1.0654427152582E-15,0.0,17.4));
#203=DIRECTION('',(6.12323399573676E-17,0.0,-1.0));
#204=DIRECTION('',(0.0,1.0,0.0));
#205=SURFACE_STYLE_FILL_AREA(#290);
#206=ORIENTED_EDGE('',*,*,#291,.F.);
#207=ORIENTED_EDGE('',*,*,#292,.T.);
#208=ORIENTED_EDGE('',*,*,#293,.F.);
#209=ORIENTED_EDGE('',*,*,#287,.F.);
#210=CARTESIAN_POINT('',(-2.90241291397923E-15,0.0,47.4));
#211=DIRECTION('',(6.12323399573677E-17,-0.0,-1.0));
#212=DIRECTION('',(0.0,1.0,0.0));
#213=SURFACE_STYLE_FILL_AREA(#294);
#214=ORIENTED_EDGE('',*,*,#292,.F.);
#215=ORIENTED_EDGE('',*,*,#295,.F.);
#216=CARTESIAN_POINT('',(-2.93915231795365E-15,3.40000000000001,48.0));
#217=DIRECTION('',(-6.12323399573677E-17,0.0,1.0));
#218=DIRECTION('',(0.0,-1.0,0.0));
#219=SURFACE_STYLE_FILL_AREA(#296);
#220=ORIENTED_EDGE('',*,*,#291,.T.);
#221=ORIENTED_EDGE('',*,*,#297,.F.);
#222=ORIENTED_EDGE('',*,*,#293,.T.);
#223=ORIENTED_EDGE('',*,*,#295,.T.);
#224=CARTESIAN_POINT('',(-2.90241291397923E-15,0.0,47.4));
#225=DIRECTION('',(6.12323399573677E-17,-0.0,-1.0));
#226=DIRECTION('',(0.0,1.0,0.0));
#227=SURFACE_STYLE_FILL_AREA(#298);
#228=ORIENTED_EDGE('',*,*,#286,.T.);
#229=ORIENTED_EDGE('',*,*,#299,.F.);
#230=ORIENTED_EDGE('',*,*,#288,.T.);
#231=ORIENTED_EDGE('',*,*,#297,.T.);
#232=CARTESIAN_POINT('',(-1.0654427152582E-15,0.0,17.4));
#233=DIRECTION('',(6.12323399573676E-17,0.0,-1.0));
#234=DIRECTION('',(0.0,1.0,0.0));
#235=SURFACE_STYLE_FILL_AREA(#300);
#236=ORIENTED_EDGE('',*,*,#289,.T.);
#237=ORIENTED_EDGE('',*,*,#299,.T.);
#238=CARTESIAN_POINT('',(7.34788079488412E-16,4.00000000000004,-12.0));
#239=DIRECTION('',(6.12323399573677E-17,0.0,-1.0));
#240=DIRECTION('',(0.0,1.0,0.0));
#241=LINE('',#301,#302);
#242=LINE('',#303,#304);
#243=LINE('',#305,#306);
#244=LINE('',#307,#308);
#245=SURFACE_STYLE_FILL_AREA(#309);
#246=ORIENTED_EDGE('',*,*,#310,.F.);
#247=ORIENTED_EDGE('',*,*,#311,.T.);
#248=ORIENTED_EDGE('',*,*,#312,.F.);
#249=ORIENTED_EDGE('',*,*,#313,.F.);
#250=CARTESIAN_POINT('',(2.20436423846524E-15,0.0,-36.0));
#251=DIRECTION('',(6.12323399573676E-17,0.0,-1.0));
#252=DIRECTION('',(0.0,1.0,0.0));
#253=SURFACE_STYLE_FILL_AREA(#314);
#254=ORIENTED_EDGE('',*,*,#311,.F.);
#255=ORIENTED_EDGE('',*,*,#315,.F.);
#256=CARTESIAN_POINT('',(7.34788079488412E-16,4.00000000000004,-12.0));
#257=DIRECTION('',(-6.12323399573677E-17,0.0,1.0));
#258=DIRECTION('',(0.0,-1.0,0.0));
#259=SURFACE_STYLE_FILL_AREA(#316);
#260=ORIENTED_EDGE('',*,*,#310,.T.);
#261=ORIENTED_EDGE('',*,*,#317,.F.);
#262=ORIENTED_EDGE('',*,*,#312,.T.);
#263=ORIENTED_EDGE('',*,*,#315,.T.);
#264=CARTESIAN_POINT('',(2.20436423846524E-15,0.0,-36.0));
#265=DIRECTION('',(6.12323399573676E-17,0.0,-1.0));
#266=DIRECTION('',(0.0,1.0,0.0));
#267=SURFACE_STYLE_FILL_AREA(#318);
#268=ORIENTED_EDGE('',*,*,#313,.T.);
#269=ORIENTED_EDGE('',*,*,#317,.T.);
#270=CARTESIAN_POINT('',(3.67394039744206E-15,4.00000000000006,-60.0));
#271=DIRECTION('',(6.12323399573677E-17,7.105427357601E-15,-1.0));
#272=DIRECTION('',(-4.35081943503005E-31,1.0,7.105427357601E-15));
#273=CARTESIAN_POINT('',(0.0,8.00000000000006,0.0));
#274=VECTOR('',#319,1.0);
#275=CARTESIAN_POINT('',(7.34788079488412E-16,3.14399440601814E-14,-12.0));
#276=VECTOR('',#320,1.0);
#277=CARTESIAN_POINT('',(7.34788079488412E-16,8.00000000000006,-12.0));
#278=VECTOR('',#321,1.0);
#279=CARTESIAN_POINT('',(-2.86567351000481E-15,8.00000000000006,46.8));
#280=VECTOR('',#322,1.0);
#281=CARTESIAN_POINT('',(-2.93915231795365E-15,6.80000000000001,48.0));
#282=VECTOR('',#323,1.0);
#283=CARTESIAN_POINT('',(-2.93915231795365E-15,0.0,48.0));
#284=VECTOR('',#324,1.0);
#285=FILL_AREA_STYLE('',(#325));
#286=EDGE_CURVE('',#326,#327,#328,.T.);
#287=EDGE_CURVE('',#326,#329,#330,.T.);
#288=EDGE_CURVE('',#331,#329,#332,.T.);
#289=EDGE_CURVE('',#327,#331,#333,.T.);
#290=FILL_AREA_STYLE('',(#334));
#291=EDGE_CURVE('',#335,#326,#336,.T.);
#292=EDGE_CURVE('',#335,#337,#338,.T.);
#293=EDGE_CURVE('',#329,#337,#339,.T.);
#294=FILL_AREA_STYLE('',(#340));
#295=EDGE_CURVE('',#337,#335,#341,.T.);
#296=FILL_AREA_STYLE('',(#342));
#297=EDGE_CURVE('',#329,#326,#343,.T.);
#298=FILL_AREA_STYLE('',(#344));
#299=EDGE_CURVE('',#331,#327,#345,.T.);
#300=FILL_AREA_STYLE('',(#346));
#301=CARTESIAN_POINT('',(3.67394039744206E-15,5.6843418860808E-14,-60.0000000000001));
#302=VECTOR('',#347,1.0);
#303=CARTESIAN_POINT('',(3.67394039744206E-15,8.00000000000006,-60.0));
#304=VECTOR('',#348,1.0);
#305=CARTESIAN_POINT('',(7.34788079488412E-16,8.00000000000006,-12.0));
#306=VECTOR('',#349,1.0);
#307=CARTESIAN_POINT('',(7.34788079488412E-16,3.14399440601814E-14,-12.0));
#308=VECTOR('',#350,1.0);
#309=FILL_AREA_STYLE('',(#351));
#310=EDGE_CURVE('',#352,#353,#354,.T.);
#311=EDGE_CURVE('',#352,#355,#356,.T.);
#312=EDGE_CURVE('',#357,#355,#358,.T.);
#313=EDGE_CURVE('',#353,#357,#359,.T.);
#314=FILL_AREA_STYLE('',(#360));
#315=EDGE_CURVE('',#355,#352,#361,.T.);
#316=FILL_AREA_STYLE('',(#362));
#317=EDGE_CURVE('',#357,#353,#363,.T.);
#318=FILL_AREA_STYLE('',(#364));
#319=DIRECTION('',(0.0,-1.0,0.0));
#320=DIRECTION('',(0.0,1.0,0.0));
#321=DIRECTION('',(-6.12323399573677E-17,0.0,1.0));
#322=DIRECTION('',(-4.32978028117741E-17,-0.707106781186556,0.707106781186539));
#323=DIRECTION('',(0.0,-1.0,0.0));
#324=DIRECTION('',(6.12323399573677E-17,5.2399906766969E-16,-1.0));
#325=FILL_AREA_STYLE_COLOUR('',#365);
#326=VERTEX_POINT('',#366);
#327=VERTEX_POINT('',#367);
#328=LINE('',#368,#369);
#329=VERTEX_POINT('',#370);
#330=CIRCLE('',#371,8.00000000000006);
#331=VERTEX_POINT('',#372);
#332=LINE('',#373,#374);
#333=CIRCLE('',#375,8.00000000000006);
#334=FILL_AREA_STYLE_COLOUR('',#376);
#335=VERTEX_POINT('',#377);
#336=LINE('',#378,#379);
#337=VERTEX_POINT('',#380);
#338=CIRCLE('',#381,6.80000000000001);
#339=LINE('',#382,#383);
#340=FILL_AREA_STYLE_COLOUR('',#384);
#341=CIRCLE('',#385,6.80000000000001);
#342=FILL_AREA_STYLE_COLOUR('',#386);
#343=CIRCLE('',#387,8.00000000000006);
#344=FILL_AREA_STYLE_COLOUR('',#388);
#345=CIRCLE('',#389,8.00000000000006);
#346=FILL_AREA_STYLE_COLOUR('',#390);
#347=DIRECTION('',(-3.94430452610506E-31,1.0,7.105427357601E-15));
#348=DIRECTION('',(-6.12323399573677E-17,0.0,1.0));
#349=DIRECTION('',(0.0,-1.0,0.0));
#350=DIRECTION('',(6.12323399573677E-17,5.29239058346387E-16,-1.0));
#351=FILL_AREA_STYLE_COLOUR('',#391);
#352=VERTEX_POINT('',#392);
#353=VERTEX_POINT('',#393);
#354=LINE('',#394,#395);
#355=VERTEX_POINT('',#396);
#356=CIRCLE('',#397,8.00000000000006);
#357=VERTEX_POINT('',#398);
#358=LINE('',#399,#400);
#359=CIRCLE('',#401,8.00000000000006);
#360=FILL_AREA_STYLE_COLOUR('',#402);
#361=CIRCLE('',#403,8.00000000000006);
#362=FILL_AREA_STYLE_COLOUR('',#404);
#363=CIRCLE('',#405,8.00000000000006);
#364=FILL_AREA_STYLE_COLOUR('',#406);
#365=COLOUR_RGB('',0.498039215803146,0.498039215803146,0.498039215803146);
#366=CARTESIAN_POINT('',(-2.86567351000481E-15,8.00000000000006,46.8));
#367=CARTESIAN_POINT('',(7.34788079488412E-16,8.00000000000006,-12.0));
#368=CARTESIAN_POINT('',(-2.04516015457609E-15,8.00000000000006,17.4));
#369=VECTOR('',#407,1.0);
#370=CARTESIAN_POINT('',(-1.88595607068692E-15,-8.00000000000006,46.8));
#371=AXIS2_PLACEMENT_3D('',#408,#409,#410);
#372=CARTESIAN_POINT('',(1.7145055188063E-15,-8.00000000000006,-12.0));
#373=CARTESIAN_POINT('',(-8.57252759403086E-17,-8.00000000000006,17.4));
#374=VECTOR('',#411,1.0);
#375=AXIS2_PLACEMENT_3D('',#412,#413,#414);
#376=COLOUR_RGB('',0.498039215803146,0.498039215803146,0.498039215803146);
#377=CARTESIAN_POINT('',(-2.93915231795365E-15,6.80000000000001,48.0));
#378=CARTESIAN_POINT('',(-3.80865154534827E-15,7.40000000000003,47.4));
#379=VECTOR('',#415,1.0);
#380=CARTESIAN_POINT('',(-2.10639249453345E-15,-6.80000000000001,48.0));
#381=AXIS2_PLACEMENT_3D('',#416,#417,#418);
#382=CARTESIAN_POINT('',(-1.99617428261018E-15,-7.40000000000003,47.4));
#383=VECTOR('',#419,1.0);
#384=COLOUR_RGB('',0.498039215803146,0.498039215803146,0.498039215803146);
#385=AXIS2_PLACEMENT_3D('',#420,#421,#422);
#386=COLOUR_RGB('',0.498039215803146,0.498039215803146,0.498039215803146);
#387=AXIS2_PLACEMENT_3D('',#423,#424,#425);
#388=COLOUR_RGB('',0.498039215803146,0.498039215803146,0.498039215803146);
#389=AXIS2_PLACEMENT_3D('',#426,#427,#428);
#390=COLOUR_RGB('',0.498039215803146,0.498039215803146,0.498039215803146);
#391=COLOUR_RGB('',0.800000011920929,0.800000011920929,0.800000011920929);
#392=CARTESIAN_POINT('',(7.34788079488412E-16,8.00000000000006,-12.0));
#393=CARTESIAN_POINT('',(3.67394039744206E-15,8.00000000000006,-60.0));
#394=CARTESIAN_POINT('',(1.22464679914735E-15,8.00000000000006,-36.0));
#395=VECTOR('',#429,1.0);
#396=CARTESIAN_POINT('',(1.7145055188063E-15,-8.00000000000006,-12.0));
#397=AXIS2_PLACEMENT_3D('',#430,#431,#432);
#398=CARTESIAN_POINT('',(4.65365783675995E-15,-8.00000000000006,-60.0));
#399=CARTESIAN_POINT('',(3.18408167778312E-15,-8.00000000000006,-36.0));
#400=VECTOR('',#433,1.0);
#401=AXIS2_PLACEMENT_3D('',#434,#435,#436);
#402=COLOUR_RGB('',0.800000011920929,0.800000011920929,0.800000011920929);
#403=AXIS2_PLACEMENT_3D('',#437,#438,#439);
#404=COLOUR_RGB('',0.800000011920929,0.800000011920929,0.800000011920929);
#405=AXIS2_PLACEMENT_3D('',#440,#441,#442);
#406=COLOUR_RGB('',0.800000011920929,0.800000011920929,0.800000011920929);
#407=DIRECTION('',(6.12323399573677E-17,0.0,-1.0));
#408=CARTESIAN_POINT('',(-2.86567351000481E-15,0.0,46.8));
#409=DIRECTION('',(6.12323399573676E-17,0.0,-1.0));
#410=DIRECTION('',(0.0,1.0,0.0));
#411=DIRECTION('',(-6.12323399573677E-17,-0.0,1.0));
#412=CARTESIAN_POINT('',(7.34788079488412E-16,0.0,-12.0));
#413=DIRECTION('',(6.12323399573676E-17,0.0,-1.0));
#414=DIRECTION('',(0.0,1.0,0.0));
#415=DIRECTION('',(-4.32978028117762E-17,0.707106781186556,-0.707106781186539));
#416=CARTESIAN_POINT('',(-2.93915231795365E-15,0.0,48.0));
#417=DIRECTION('',(6.12323399573677E-17,0.0,-1.0));
#418=DIRECTION('',(0.0,1.0,0.0));
#419=DIRECTION('',(-1.29893408435324E-16,0.707106781186556,0.707106781186539));
#420=CARTESIAN_POINT('',(-2.93915231795365E-15,0.0,48.0));
#421=DIRECTION('',(6.12323399573677E-17,0.0,-1.0));
#422=DIRECTION('',(0.0,1.0,0.0));
#423=CARTESIAN_POINT('',(-2.86567351000481E-15,0.0,46.8));
#424=DIRECTION('',(6.12323399573676E-17,0.0,-1.0));
#425=DIRECTION('',(0.0,1.0,0.0));
#426=CARTESIAN_POINT('',(7.34788079488412E-16,0.0,-12.0));
#427=DIRECTION('',(6.12323399573676E-17,0.0,-1.0));
#428=DIRECTION('',(0.0,1.0,0.0));
#429=DIRECTION('',(6.12323399573677E-17,0.0,-1.0));
#430=CARTESIAN_POINT('',(7.34788079488412E-16,0.0,-12.0));
#431=DIRECTION('',(6.12323399573676E-17,0.0,-1.0));
#432=DIRECTION('',(0.0,1.0,0.0));
#433=DIRECTION('',(-6.12323399573677E-17,-0.0,1.0));
#434=CARTESIAN_POINT('',(3.67394039744206E-15,0.0,-60.0));
#435=DIRECTION('',(6.12323399573676E-17,0.0,-1.0));
#436=DIRECTION('',(0.0,1.0,0.0));
#437=CARTESIAN_POINT('',(7.34788079488412E-16,0.0,-12.0));
#438=DIRECTION('',(6.12323399573676E-17,0.0,-1.0));
#439=DIRECTION('',(0.0,1.0,0.0));
#440=CARTESIAN_POINT('',(3.67394039744206E-15,0.0,-60.0));
#441=DIRECTION('',(6.12323399573676E-17,0.0,-1.0));
#442=DIRECTION('',(0.0,1.0,0.0));
#443=DIRECTION('',(0.0,0.0,1.0));
#444=DIRECTION('',(1.0,0.0,0.0));
#445=CARTESIAN_POINT('',(0.0,0.0,48.000000));
#446=AXIS2_PLACEMENT_3D('PCS', #445,#443,#444);
#447=CARTESIAN_POINT('',(0.0,0.0,0.000000));
#448=AXIS2_PLACEMENT_3D('MCS', #447,#443,#444);
#449=CARTESIAN_POINT('',(0.0,0.0,-60.000000));
#450=AXIS2_PLACEMENT_3D('CIP', #449,#443,#444);
ENDSEC;
END-ISO-10303-21;
