ISO-10303-21;
HEADER;
FILE_DESCRIPTION(('STEP AP214'),'1');
FILE_NAME('607900900-000-00-E43.stp','2023-02-06T08:49:44',(' '),(' '),'Spatial InterOp 3D',' ',' ');
FILE_SCHEMA(('AUTOMOTIVE_DESIGN { 1 0 10303 214 1 1 1 1 }'));
ENDSEC;
DATA;
#1=MECHANICAL_DESIGN_GEOMETRIC_PRESENTATION_REPRESENTATION(' ',(#12,#13,#14,#15,#16,#17,#18,#19,#20,#21,#22,#23,#24,#25,#26,#27,#28,#29),#8);
#2=PRODUCT_DEFINITION_CONTEXT('',#30,'design');
#3=APPLICATION_PROTOCOL_DEFINITION('INTERNATIONAL STANDARD','automotive_design',1994,#30);
#4=PRODUCT_CATEGORY_RELATIONSHIP('NONE','NONE',#31,#32);
#5=SHAPE_DEFINITION_REPRESENTATION(#33,#34);
#6=SHAPE_DEFINITION_REPRESENTATION(#33,#35);
#7=SHAPE_DEFINITION_REPRESENTATION(#33,#36);
#8= (GEOMETRIC_REPRESENTATION_CONTEXT(3)GLOBAL_UNCERTAINTY_ASSIGNED_CONTEXT((#39))GLOBAL_UNIT_ASSIGNED_CONTEXT((#41,#42,#43))REPRESENTATION_CONTEXT('NONE','WORKSPACE'));
#12=STYLED_ITEM('',(#45),#46);
#13=STYLED_ITEM('',(#47),#48);
#14=STYLED_ITEM('',(#49),#50);
#15=STYLED_ITEM('',(#51),#52);
#16=STYLED_ITEM('',(#53),#54);
#17=STYLED_ITEM('',(#55),#56);
#18=STYLED_ITEM('',(#57),#58);
#19=STYLED_ITEM('',(#59),#60);
#20=STYLED_ITEM('',(#61),#62);
#21=STYLED_ITEM('',(#63),#64);
#22=STYLED_ITEM('',(#65),#66);
#23=STYLED_ITEM('',(#67),#68);
#24=STYLED_ITEM('',(#69),#70);
#25=STYLED_ITEM('',(#71),#72);
#26=STYLED_ITEM('',(#73),#74);
#27=STYLED_ITEM('',(#75),#76);
#28=STYLED_ITEM('',(#77),#78);
#29=STYLED_ITEM('',(#79),#80);
#30=APPLICATION_CONTEXT(' ');
#31=PRODUCT_CATEGORY('part','NONE');
#32=PRODUCT_RELATED_PRODUCT_CATEGORY('detail',' ',(#81));
#33=PRODUCT_DEFINITION_SHAPE('NONE','NONE',#82);
#34=ADVANCED_BREP_SHAPE_REPRESENTATION('1',(#83,#84),#8);
#35=ADVANCED_BREP_SHAPE_REPRESENTATION('2',(#85,#86),#8);
#36=GEOMETRICALLY_BOUNDED_SURFACE_SHAPE_REPRESENTATION('3',(#87,#88),#8);
#39=UNCERTAINTY_MEASURE_WITH_UNIT(LENGTH_MEASURE(1.0E-06),#41,'','');
#41= (CONVERSION_BASED_UNIT('MILLIMETRE',#91)LENGTH_UNIT()NAMED_UNIT(#94));
#42= (NAMED_UNIT(#96)PLANE_ANGLE_UNIT()SI_UNIT($,.RADIAN.));
#43= (NAMED_UNIT(#96)SOLID_ANGLE_UNIT()SI_UNIT($,.STERADIAN.));
#45=PRESENTATION_STYLE_ASSIGNMENT((#102));
#46=COMPOSITE_CURVE('',(#103),.U.);
#47=PRESENTATION_STYLE_ASSIGNMENT((#104));
#48=COMPOSITE_CURVE('',(#105,#106,#107,#108,#109,#110,#111),.U.);
#49=PRESENTATION_STYLE_ASSIGNMENT((#112));
#50=ADVANCED_FACE('',(#113),#114,.T.);
#51=PRESENTATION_STYLE_ASSIGNMENT((#115));
#52=ADVANCED_FACE('',(#116),#117,.T.);
#53=PRESENTATION_STYLE_ASSIGNMENT((#118));
#54=ADVANCED_FACE('',(#119),#120,.T.);
#55=PRESENTATION_STYLE_ASSIGNMENT((#121));
#56=ADVANCED_FACE('',(#122),#123,.T.);
#57=PRESENTATION_STYLE_ASSIGNMENT((#124));
#58=ADVANCED_FACE('',(#125),#126,.T.);
#59=PRESENTATION_STYLE_ASSIGNMENT((#127));
#60=ADVANCED_FACE('',(#128),#129,.T.);
#61=PRESENTATION_STYLE_ASSIGNMENT((#130));
#62=ADVANCED_FACE('',(#131),#132,.T.);
#63=PRESENTATION_STYLE_ASSIGNMENT((#133));
#64=ADVANCED_FACE('',(#134),#135,.T.);
#65=PRESENTATION_STYLE_ASSIGNMENT((#136));
#66=ADVANCED_FACE('',(#137,#138),#139,.T.);
#67=PRESENTATION_STYLE_ASSIGNMENT((#140));
#68=COMPOSITE_CURVE('',(#141,#142,#143,#144,#145),.U.);
#69=PRESENTATION_STYLE_ASSIGNMENT((#146));
#70=ADVANCED_FACE('',(#147),#148,.T.);
#71=PRESENTATION_STYLE_ASSIGNMENT((#149));
#72=ADVANCED_FACE('',(#150),#151,.T.);
#73=PRESENTATION_STYLE_ASSIGNMENT((#152));
#74=ADVANCED_FACE('',(#153),#154,.T.);
#75=PRESENTATION_STYLE_ASSIGNMENT((#155));
#76=ADVANCED_FACE('',(#156),#157,.T.);
#77=PRESENTATION_STYLE_ASSIGNMENT((#158));
#78=ADVANCED_FACE('',(#159),#160,.T.);
#79=PRESENTATION_STYLE_ASSIGNMENT((#161));
#80=ADVANCED_FACE('',(#162),#163,.T.);
#81=PRODUCT('1','','PART--DESC',(#164));
#82=PRODUCT_DEFINITION('','NONE',#165,#2);
#83=MANIFOLD_SOLID_BREP('1',#166);
#84=AXIS2_PLACEMENT_3D('',#167,#168,#169);
#85=MANIFOLD_SOLID_BREP('2',#170);
#86=AXIS2_PLACEMENT_3D('',#171,#172,#173);
#87=GEOMETRIC_SET('3',(#46,#48,#68));
#88=AXIS2_PLACEMENT_3D('',#174,#175,#176);
#91=LENGTH_MEASURE_WITH_UNIT(LENGTH_MEASURE(1.0),#177);
#94=DIMENSIONAL_EXPONENTS(1.0,0.0,0.0,0.0,0.0,0.0,0.0);
#96=DIMENSIONAL_EXPONENTS(0.0,0.0,0.0,0.0,0.0,0.0,0.0);
#102=CURVE_STYLE('',#178,POSITIVE_LENGTH_MEASURE(1.0E-06),#179);
#103=COMPOSITE_CURVE_SEGMENT(.CONTINUOUS.,.T.,#180);
#104=CURVE_STYLE('',#181,POSITIVE_LENGTH_MEASURE(1.0E-06),#182);
#105=COMPOSITE_CURVE_SEGMENT(.CONTINUOUS.,.T.,#183);
#106=COMPOSITE_CURVE_SEGMENT(.CONTINUOUS.,.T.,#184);
#107=COMPOSITE_CURVE_SEGMENT(.CONTINUOUS.,.T.,#185);
#108=COMPOSITE_CURVE_SEGMENT(.CONTINUOUS.,.T.,#186);
#109=COMPOSITE_CURVE_SEGMENT(.CONTINUOUS.,.T.,#187);
#110=COMPOSITE_CURVE_SEGMENT(.CONTINUOUS.,.T.,#188);
#111=COMPOSITE_CURVE_SEGMENT(.CONTINUOUS.,.T.,#189);
#112=SURFACE_STYLE_USAGE(.BOTH.,#190);
#113=FACE_OUTER_BOUND('',#191,.T.);
#114=CYLINDRICAL_SURFACE('',#192,3.0);
#115=SURFACE_STYLE_USAGE(.BOTH.,#193);
#116=FACE_OUTER_BOUND('',#194,.T.);
#117=CONICAL_SURFACE('',#195,2.7,0.785398163397425);
#118=SURFACE_STYLE_USAGE(.BOTH.,#196);
#119=FACE_OUTER_BOUND('',#197,.T.);
#120=CYLINDRICAL_SURFACE('',#198,2.9);
#121=SURFACE_STYLE_USAGE(.BOTH.,#199);
#122=FACE_OUTER_BOUND('',#200,.T.);
#123=CYLINDRICAL_SURFACE('',#201,2.9);
#124=SURFACE_STYLE_USAGE(.BOTH.,#202);
#125=FACE_OUTER_BOUND('',#203,.T.);
#126=PLANE('',#204);
#127=SURFACE_STYLE_USAGE(.BOTH.,#205);
#128=FACE_OUTER_BOUND('',#206,.T.);
#129=PLANE('',#207);
#130=SURFACE_STYLE_USAGE(.BOTH.,#208);
#131=FACE_OUTER_BOUND('',#209,.T.);
#132=CONICAL_SURFACE('',#210,2.7,0.785398163397425);
#133=SURFACE_STYLE_USAGE(.BOTH.,#211);
#134=FACE_OUTER_BOUND('',#212,.T.);
#135=CYLINDRICAL_SURFACE('',#213,3.0);
#136=SURFACE_STYLE_USAGE(.BOTH.,#214);
#137=FACE_BOUND('',#215,.T.);
#138=FACE_OUTER_BOUND('',#216,.T.);
#139=PLANE('',#217);
#140=CURVE_STYLE('',#218,POSITIVE_LENGTH_MEASURE(1.0E-06),#219);
#141=COMPOSITE_CURVE_SEGMENT(.CONTINUOUS.,.T.,#220);
#142=COMPOSITE_CURVE_SEGMENT(.CONTINUOUS.,.T.,#221);
#143=COMPOSITE_CURVE_SEGMENT(.CONTINUOUS.,.T.,#222);
#144=COMPOSITE_CURVE_SEGMENT(.CONTINUOUS.,.T.,#223);
#145=COMPOSITE_CURVE_SEGMENT(.CONTINUOUS.,.T.,#224);
#146=SURFACE_STYLE_USAGE(.BOTH.,#225);
#147=FACE_OUTER_BOUND('',#226,.T.);
#148=TOROIDAL_SURFACE('',#227,2.5,0.5);
#149=SURFACE_STYLE_USAGE(.BOTH.,#228);
#150=FACE_OUTER_BOUND('',#229,.T.);
#151=CYLINDRICAL_SURFACE('',#230,3.00000000000006);
#152=SURFACE_STYLE_USAGE(.BOTH.,#231);
#153=FACE_OUTER_BOUND('',#232,.T.);
#154=PLANE('',#233);
#155=SURFACE_STYLE_USAGE(.BOTH.,#234);
#156=FACE_OUTER_BOUND('',#235,.T.);
#157=CYLINDRICAL_SURFACE('',#236,3.00000000000006);
#158=SURFACE_STYLE_USAGE(.BOTH.,#237);
#159=FACE_OUTER_BOUND('',#238,.T.);
#160=TOROIDAL_SURFACE('',#239,2.5,0.5);
#161=SURFACE_STYLE_USAGE(.BOTH.,#240);
#162=FACE_OUTER_BOUND('',#241,.T.);
#163=PLANE('',#242);
#164=PRODUCT_CONTEXT('',#30,'mechanical');
#165=PRODUCT_DEFINITION_FORMATION_WITH_SPECIFIED_SOURCE(' ','NONE',#81,.NOT_KNOWN.);
#166=CLOSED_SHELL('',(#50,#52,#54,#56,#58,#60,#62,#64,#66));
#167=CARTESIAN_POINT('',(0.0,0.0,0.0));
#168=DIRECTION('',(0.0,0.0,1.0));
#169=DIRECTION('',(1.0,0.0,0.0));
#170=CLOSED_SHELL('',(#70,#72,#74,#76,#78,#80));
#171=CARTESIAN_POINT('',(0.0,0.0,0.0));
#172=DIRECTION('',(0.0,0.0,1.0));
#173=DIRECTION('',(1.0,0.0,0.0));
#174=CARTESIAN_POINT('',(0.0,0.0,0.0));
#175=DIRECTION('',(0.0,0.0,1.0));
#176=DIRECTION('',(1.0,0.0,0.0));
#177= (NAMED_UNIT(#94)LENGTH_UNIT()SI_UNIT(.MILLI.,.METRE.));
#178=DRAUGHTING_PRE_DEFINED_CURVE_FONT('continuous');
#179=COLOUR_RGB('',0.0,1.0,0.0);
#180=TRIMMED_CURVE('',#244,(PARAMETER_VALUE(0.0)),(PARAMETER_VALUE(3.0)),.T.,.UNSPECIFIED.);
#181=DRAUGHTING_PRE_DEFINED_CURVE_FONT('continuous');
#182=COLOUR_RGB('',0.498039215803146,0.498039215803146,0.498039215803146);
#183=TRIMMED_CURVE('',#245,(PARAMETER_VALUE(0.0)),(PARAMETER_VALUE(36.4)),.T.,.UNSPECIFIED.);
#184=TRIMMED_CURVE('',#246,(PARAMETER_VALUE(0.0)),(PARAMETER_VALUE(0.848528137423869)),.T.,.UNSPECIFIED.);
#185=TRIMMED_CURVE('',#247,(PARAMETER_VALUE(0.0)),(PARAMETER_VALUE(2.40000000000001)),.T.,.UNSPECIFIED.);
#186=TRIMMED_CURVE('',#248,(PARAMETER_VALUE(0.0)),(PARAMETER_VALUE(44.0)),.T.,.UNSPECIFIED.);
#187=TRIMMED_CURVE('',#249,(PARAMETER_VALUE(0.0)),(PARAMETER_VALUE(2.90000000000001)),.T.,.UNSPECIFIED.);
#188=TRIMMED_CURVE('',#250,(PARAMETER_VALUE(0.0)),(PARAMETER_VALUE(7.0)),.T.,.UNSPECIFIED.);
#189=TRIMMED_CURVE('',#251,(PARAMETER_VALUE(0.0)),(PARAMETER_VALUE(0.0999999999999943)),.T.,.UNSPECIFIED.);
#190=SURFACE_SIDE_STYLE('',(#252));
#191=EDGE_LOOP('',(#253,#254,#255,#256));
#192=AXIS2_PLACEMENT_3D('',#257,#258,#259);
#193=SURFACE_SIDE_STYLE('',(#260));
#194=EDGE_LOOP('',(#261,#262,#263,#264));
#195=AXIS2_PLACEMENT_3D('',#265,#266,#267);
#196=SURFACE_SIDE_STYLE('',(#268));
#197=EDGE_LOOP('',(#269,#270,#271,#272));
#198=AXIS2_PLACEMENT_3D('',#273,#274,#275);
#199=SURFACE_SIDE_STYLE('',(#276));
#200=EDGE_LOOP('',(#277,#278,#279,#280));
#201=AXIS2_PLACEMENT_3D('',#281,#282,#283);
#202=SURFACE_SIDE_STYLE('',(#284));
#203=EDGE_LOOP('',(#285,#286));
#204=AXIS2_PLACEMENT_3D('',#287,#288,#289);
#205=SURFACE_SIDE_STYLE('',(#290));
#206=EDGE_LOOP('',(#291,#292));
#207=AXIS2_PLACEMENT_3D('',#293,#294,#295);
#208=SURFACE_SIDE_STYLE('',(#296));
#209=EDGE_LOOP('',(#297,#298,#299,#300));
#210=AXIS2_PLACEMENT_3D('',#301,#302,#303);
#211=SURFACE_SIDE_STYLE('',(#304));
#212=EDGE_LOOP('',(#305,#306,#307,#308));
#213=AXIS2_PLACEMENT_3D('',#309,#310,#311);
#214=SURFACE_SIDE_STYLE('',(#312));
#215=EDGE_LOOP('',(#313,#314));
#216=EDGE_LOOP('',(#315,#316));
#217=AXIS2_PLACEMENT_3D('',#317,#318,#319);
#218=DRAUGHTING_PRE_DEFINED_CURVE_FONT('continuous');
#219=COLOUR_RGB('',0.0,0.0,1.0);
#220=TRIMMED_CURVE('',#320,(PARAMETER_VALUE(0.0)),(PARAMETER_VALUE(2.5)),.T.,.UNSPECIFIED.);
#221=TRIMMED_CURVE('',#321,(PARAMETER_VALUE(-0.785398163397448)),(PARAMETER_VALUE(0.785398163397448)),.T.,.UNSPECIFIED.);
#222=TRIMMED_CURVE('',#322,(PARAMETER_VALUE(0.0)),(PARAMETER_VALUE(12.5)),.T.,.UNSPECIFIED.);
#223=TRIMMED_CURVE('',#323,(PARAMETER_VALUE(0.0)),(PARAMETER_VALUE(3.0000000000075)),.T.,.UNSPECIFIED.);
#224=TRIMMED_CURVE('',#324,(PARAMETER_VALUE(0.0)),(PARAMETER_VALUE(13.0)),.T.,.UNSPECIFIED.);
#225=SURFACE_SIDE_STYLE('',(#325));
#226=EDGE_LOOP('',(#326,#327,#328,#329,#330,#331));
#227=AXIS2_PLACEMENT_3D('',#332,#333,#334);
#228=SURFACE_SIDE_STYLE('',(#335));
#229=EDGE_LOOP('',(#336,#337,#338,#339,#340));
#230=AXIS2_PLACEMENT_3D('',#341,#342,#343);
#231=SURFACE_SIDE_STYLE('',(#344));
#232=EDGE_LOOP('',(#345,#346));
#233=AXIS2_PLACEMENT_3D('',#347,#348,#349);
#234=SURFACE_SIDE_STYLE('',(#350));
#235=EDGE_LOOP('',(#351,#352,#353,#354,#355));
#236=AXIS2_PLACEMENT_3D('',#356,#357,#358);
#237=SURFACE_SIDE_STYLE('',(#359));
#238=EDGE_LOOP('',(#360,#361,#362,#363,#364));
#239=AXIS2_PLACEMENT_3D('',#365,#366,#367);
#240=SURFACE_SIDE_STYLE('',(#368));
#241=EDGE_LOOP('',(#369,#370,#371));
#242=AXIS2_PLACEMENT_3D('',#372,#373,#374);
#244=LINE('',#375,#376);
#245=LINE('',#377,#378);
#246=LINE('',#379,#380);
#247=LINE('',#381,#382);
#248=LINE('',#383,#384);
#249=LINE('',#385,#386);
#250=LINE('',#387,#388);
#251=LINE('',#389,#390);
#252=SURFACE_STYLE_FILL_AREA(#391);
#253=ORIENTED_EDGE('',*,*,#392,.F.);
#254=ORIENTED_EDGE('',*,*,#393,.T.);
#255=ORIENTED_EDGE('',*,*,#394,.F.);
#256=ORIENTED_EDGE('',*,*,#395,.F.);
#257=CARTESIAN_POINT('',(-1.05319624726672E-15,0.0,17.2));
#258=DIRECTION('',(6.12323399573676E-17,0.0,-1.0));
#259=DIRECTION('',(0.0,1.0,0.0));
#260=SURFACE_STYLE_FILL_AREA(#396);
#261=ORIENTED_EDGE('',*,*,#397,.F.);
#262=ORIENTED_EDGE('',*,*,#398,.T.);
#263=ORIENTED_EDGE('',*,*,#399,.F.);
#264=ORIENTED_EDGE('',*,*,#393,.F.);
#265=CARTESIAN_POINT('',(-2.18599453647802E-15,0.0,35.7));
#266=DIRECTION('',(6.12323399573677E-17,-0.0,-1.0));
#267=DIRECTION('',(0.0,1.0,0.0));
#268=SURFACE_STYLE_FILL_AREA(#400);
#269=ORIENTED_EDGE('',*,*,#401,.F.);
#270=ORIENTED_EDGE('',*,*,#402,.T.);
#271=ORIENTED_EDGE('',*,*,#403,.F.);
#272=ORIENTED_EDGE('',*,*,#404,.F.);
#273=CARTESIAN_POINT('',(2.75545529808154E-16,0.0,-4.5));
#274=DIRECTION('',(6.12323399573677E-17,0.0,-1.0));
#275=DIRECTION('',(0.0,1.0,0.0));
#276=SURFACE_STYLE_FILL_AREA(#405);
#277=ORIENTED_EDGE('',*,*,#401,.T.);
#278=ORIENTED_EDGE('',*,*,#406,.F.);
#279=ORIENTED_EDGE('',*,*,#403,.T.);
#280=ORIENTED_EDGE('',*,*,#407,.T.);
#281=CARTESIAN_POINT('',(2.75545529808154E-16,0.0,-4.5));
#282=DIRECTION('',(6.12323399573677E-17,0.0,-1.0));
#283=DIRECTION('',(0.0,1.0,0.0));
#284=SURFACE_STYLE_FILL_AREA(#408);
#285=ORIENTED_EDGE('',*,*,#404,.T.);
#286=ORIENTED_EDGE('',*,*,#406,.T.);
#287=CARTESIAN_POINT('',(4.89858719658941E-16,1.45,-8.0));
#288=DIRECTION('',(6.12323399573677E-17,0.0,-1.0));
#289=DIRECTION('',(0.0,1.0,0.0));
#290=SURFACE_STYLE_FILL_AREA(#409);
#291=ORIENTED_EDGE('',*,*,#398,.F.);
#292=ORIENTED_EDGE('',*,*,#410,.F.);
#293=CARTESIAN_POINT('',(-2.20436423846524E-15,1.2,36.0));
#294=DIRECTION('',(-6.12323399573677E-17,0.0,1.0));
#295=DIRECTION('',(0.0,-1.0,0.0));
#296=SURFACE_STYLE_FILL_AREA(#411);
#297=ORIENTED_EDGE('',*,*,#397,.T.);
#298=ORIENTED_EDGE('',*,*,#412,.F.);
#299=ORIENTED_EDGE('',*,*,#399,.T.);
#300=ORIENTED_EDGE('',*,*,#410,.T.);
#301=CARTESIAN_POINT('',(-2.18599453647802E-15,0.0,35.7));
#302=DIRECTION('',(6.12323399573677E-17,-0.0,-1.0));
#303=DIRECTION('',(0.0,1.0,0.0));
#304=SURFACE_STYLE_FILL_AREA(#413);
#305=ORIENTED_EDGE('',*,*,#392,.T.);
#306=ORIENTED_EDGE('',*,*,#414,.F.);
#307=ORIENTED_EDGE('',*,*,#394,.T.);
#308=ORIENTED_EDGE('',*,*,#412,.T.);
#309=CARTESIAN_POINT('',(-1.05319624726672E-15,0.0,17.2));
#310=DIRECTION('',(6.12323399573676E-17,0.0,-1.0));
#311=DIRECTION('',(0.0,1.0,0.0));
#312=SURFACE_STYLE_FILL_AREA(#415);
#313=ORIENTED_EDGE('',*,*,#402,.F.);
#314=ORIENTED_EDGE('',*,*,#407,.F.);
#315=ORIENTED_EDGE('',*,*,#395,.T.);
#316=ORIENTED_EDGE('',*,*,#414,.T.);
#317=CARTESIAN_POINT('',(6.12323399573676E-17,2.95,-1.0));
#318=DIRECTION('',(6.12323399573677E-17,0.0,-1.0));
#319=DIRECTION('',(0.0,1.0,0.0));
#320=LINE('',#416,#417);
#321=CIRCLE('',#418,0.5);
#322=LINE('',#419,#420);
#323=LINE('',#421,#422);
#324=LINE('',#423,#424);
#325=SURFACE_STYLE_FILL_AREA(#425);
#326=ORIENTED_EDGE('',*,*,#426,.F.);
#327=ORIENTED_EDGE('',*,*,#427,.T.);
#328=ORIENTED_EDGE('',*,*,#428,.T.);
#329=ORIENTED_EDGE('',*,*,#429,.F.);
#330=ORIENTED_EDGE('',*,*,#430,.F.);
#331=ORIENTED_EDGE('',*,*,#431,.F.);
#332=CARTESIAN_POINT('',(1.25526296912604E-15,0.0,-20.5));
#333=DIRECTION('',(6.12323399573677E-17,0.0,-1.0));
#334=DIRECTION('',(-1.0,0.0,-6.12323399573677E-17));
#335=SURFACE_STYLE_FILL_AREA(#432);
#336=ORIENTED_EDGE('',*,*,#433,.F.);
#337=ORIENTED_EDGE('',*,*,#434,.T.);
#338=ORIENTED_EDGE('',*,*,#435,.F.);
#339=ORIENTED_EDGE('',*,*,#436,.F.);
#340=ORIENTED_EDGE('',*,*,#428,.F.);
#341=CARTESIAN_POINT('',(8.72560844392489E-16,0.0,-14.25));
#342=DIRECTION('',(6.12323399573677E-17,0.0,-1.0));
#343=DIRECTION('',(0.0,1.0,0.0));
#344=SURFACE_STYLE_FILL_AREA(#437);
#345=ORIENTED_EDGE('',*,*,#434,.F.);
#346=ORIENTED_EDGE('',*,*,#438,.F.);
#347=CARTESIAN_POINT('',(4.89858719658941E-16,1.49999999999636,-8.0));
#348=DIRECTION('',(-6.12323399573677E-17,0.0,1.0));
#349=DIRECTION('',(0.0,-1.0,0.0));
#350=SURFACE_STYLE_FILL_AREA(#439);
#351=ORIENTED_EDGE('',*,*,#433,.T.);
#352=ORIENTED_EDGE('',*,*,#427,.F.);
#353=ORIENTED_EDGE('',*,*,#440,.F.);
#354=ORIENTED_EDGE('',*,*,#435,.T.);
#355=ORIENTED_EDGE('',*,*,#438,.T.);
#356=CARTESIAN_POINT('',(8.72560844392489E-16,0.0,-14.25));
#357=DIRECTION('',(6.12323399573677E-17,0.0,-1.0));
#358=DIRECTION('',(0.0,1.0,0.0));
#359=SURFACE_STYLE_FILL_AREA(#441);
#360=ORIENTED_EDGE('',*,*,#426,.T.);
#361=ORIENTED_EDGE('',*,*,#442,.F.);
#362=ORIENTED_EDGE('',*,*,#429,.T.);
#363=ORIENTED_EDGE('',*,*,#436,.T.);
#364=ORIENTED_EDGE('',*,*,#440,.T.);
#365=CARTESIAN_POINT('',(1.25526296912604E-15,0.0,-20.5));
#366=DIRECTION('',(6.12323399573677E-17,0.0,-1.0));
#367=DIRECTION('',(-1.0,0.0,-6.12323399573677E-17));
#368=SURFACE_STYLE_FILL_AREA(#443);
#369=ORIENTED_EDGE('',*,*,#430,.T.);
#370=ORIENTED_EDGE('',*,*,#442,.T.);
#371=ORIENTED_EDGE('',*,*,#431,.T.);
#372=CARTESIAN_POINT('',(1.28587913910472E-15,1.25,-21.0));
#373=DIRECTION('',(6.12323399573677E-17,0.0,-1.0));
#374=DIRECTION('',(0.0,1.0,0.0));
#375=CARTESIAN_POINT('',(0.0,3.0,0.0));
#376=VECTOR('',#444,1.0);
#377=CARTESIAN_POINT('',(6.12323399573677E-17,3.0,-1.0));
#378=VECTOR('',#445,1.0);
#379=CARTESIAN_POINT('',(-2.16762483449081E-15,3.0,35.4));
#380=VECTOR('',#446,1.0);
#381=CARTESIAN_POINT('',(-2.20436423846524E-15,2.40000000000001,36.0));
#382=VECTOR('',#447,1.0);
#383=CARTESIAN_POINT('',(-2.20436423846524E-15,0.0,36.0));
#384=VECTOR('',#448,1.0);
#385=CARTESIAN_POINT('',(4.89858719658941E-16,0.0,-8.0));
#386=VECTOR('',#449,1.0);
#387=CARTESIAN_POINT('',(4.89858719658941E-16,2.90000000000001,-8.0));
#388=VECTOR('',#450,1.0);
#389=CARTESIAN_POINT('',(6.12323399573677E-17,2.90000000000001,-1.0));
#390=VECTOR('',#451,1.0);
#391=FILL_AREA_STYLE('',(#452));
#392=EDGE_CURVE('',#453,#454,#455,.T.);
#393=EDGE_CURVE('',#453,#456,#457,.T.);
#394=EDGE_CURVE('',#458,#456,#459,.T.);
#395=EDGE_CURVE('',#454,#458,#460,.T.);
#396=FILL_AREA_STYLE('',(#461));
#397=EDGE_CURVE('',#462,#453,#463,.T.);
#398=EDGE_CURVE('',#462,#464,#465,.T.);
#399=EDGE_CURVE('',#456,#464,#466,.T.);
#400=FILL_AREA_STYLE('',(#467));
#401=EDGE_CURVE('',#468,#469,#470,.T.);
#402=EDGE_CURVE('',#468,#471,#472,.T.);
#403=EDGE_CURVE('',#473,#471,#474,.T.);
#404=EDGE_CURVE('',#469,#473,#475,.T.);
#405=FILL_AREA_STYLE('',(#476));
#406=EDGE_CURVE('',#473,#469,#477,.T.);
#407=EDGE_CURVE('',#471,#468,#478,.T.);
#408=FILL_AREA_STYLE('',(#479));
#409=FILL_AREA_STYLE('',(#480));
#410=EDGE_CURVE('',#464,#462,#481,.T.);
#411=FILL_AREA_STYLE('',(#482));
#412=EDGE_CURVE('',#456,#453,#483,.T.);
#413=FILL_AREA_STYLE('',(#484));
#414=EDGE_CURVE('',#458,#454,#485,.T.);
#415=FILL_AREA_STYLE('',(#486));
#416=CARTESIAN_POINT('',(1.28587913910472E-15,0.0,-21.0));
#417=VECTOR('',#487,1.0);
#418=AXIS2_PLACEMENT_3D('',#488,#489,#490);
#419=CARTESIAN_POINT('',(1.25526296912604E-15,3.0,-20.5));
#420=VECTOR('',#491,1.0);
#421=CARTESIAN_POINT('',(4.89858719658941E-16,3.00000000000011,-8.0));
#422=VECTOR('',#492,1.0);
#423=CARTESIAN_POINT('',(4.89858719658941E-16,-7.38964445190504E-12,-8.0));
#424=VECTOR('',#493,1.0);
#425=FILL_AREA_STYLE('',(#494));
#426=EDGE_CURVE('',#495,#496,#497,.T.);
#427=EDGE_CURVE('',#495,#498,#499,.T.);
#428=EDGE_CURVE('',#498,#500,#501,.T.);
#429=EDGE_CURVE('',#502,#500,#503,.T.);
#430=EDGE_CURVE('',#504,#502,#505,.T.);
#431=EDGE_CURVE('',#496,#504,#506,.T.);
#432=FILL_AREA_STYLE('',(#507));
#433=EDGE_CURVE('',#508,#498,#509,.T.);
#434=EDGE_CURVE('',#508,#510,#511,.T.);
#435=EDGE_CURVE('',#512,#510,#513,.T.);
#436=EDGE_CURVE('',#500,#512,#514,.T.);
#437=FILL_AREA_STYLE('',(#515));
#438=EDGE_CURVE('',#510,#508,#516,.T.);
#439=FILL_AREA_STYLE('',(#517));
#440=EDGE_CURVE('',#512,#495,#518,.T.);
#441=FILL_AREA_STYLE('',(#519));
#442=EDGE_CURVE('',#502,#496,#520,.T.);
#443=FILL_AREA_STYLE('',(#521));
#444=DIRECTION('',(0.0,-1.0,0.0));
#445=DIRECTION('',(-6.12323399573677E-17,0.0,1.0));
#446=DIRECTION('',(-4.32978028117758E-17,-0.707106781186531,0.707106781186564));
#447=DIRECTION('',(0.0,-1.0,0.0));
#448=DIRECTION('',(6.12323399573677E-17,0.0,-1.0));
#449=DIRECTION('',(0.0,1.0,0.0));
#450=DIRECTION('',(-6.12323399573677E-17,0.0,1.0));
#451=DIRECTION('',(0.0,1.0,0.0));
#452=FILL_AREA_STYLE_COLOUR('',#522);
#453=VERTEX_POINT('',#523);
#454=VERTEX_POINT('',#524);
#455=LINE('',#525,#526);
#456=VERTEX_POINT('',#527);
#457=CIRCLE('',#528,3.0);
#458=VERTEX_POINT('',#529);
#459=LINE('',#530,#531);
#460=CIRCLE('',#532,3.0);
#461=FILL_AREA_STYLE_COLOUR('',#533);
#462=VERTEX_POINT('',#534);
#463=LINE('',#535,#536);
#464=VERTEX_POINT('',#537);
#465=CIRCLE('',#538,2.40000000000001);
#466=LINE('',#539,#540);
#467=FILL_AREA_STYLE_COLOUR('',#541);
#468=VERTEX_POINT('',#542);
#469=VERTEX_POINT('',#543);
#470=LINE('',#544,#545);
#471=VERTEX_POINT('',#546);
#472=CIRCLE('',#547,2.9);
#473=VERTEX_POINT('',#548);
#474=LINE('',#549,#550);
#475=CIRCLE('',#551,2.9);
#476=FILL_AREA_STYLE_COLOUR('',#552);
#477=CIRCLE('',#553,2.9);
#478=CIRCLE('',#554,2.9);
#479=FILL_AREA_STYLE_COLOUR('',#555);
#480=FILL_AREA_STYLE_COLOUR('',#556);
#481=CIRCLE('',#557,2.40000000000001);
#482=FILL_AREA_STYLE_COLOUR('',#558);
#483=CIRCLE('',#559,3.0);
#484=FILL_AREA_STYLE_COLOUR('',#560);
#485=CIRCLE('',#561,3.0);
#486=FILL_AREA_STYLE_COLOUR('',#562);
#487=DIRECTION('',(0.0,1.0,0.0));
#488=CARTESIAN_POINT('',(1.25526296912604E-15,2.5,-20.5));
#489=DIRECTION('',(1.0,0.0,6.12323399573677E-17));
#490=DIRECTION('',(4.32978028117747E-17,0.707106781186548,-0.707106781186548));
#491=DIRECTION('',(-6.12323399573677E-17,9.09494701772928E-15,1.0));
#492=DIRECTION('',(0.0,-1.0,0.0));
#493=DIRECTION('',(6.12323399573677E-17,5.6843418860808E-13,-1.0));
#494=FILL_AREA_STYLE_COLOUR('',#563);
#495=VERTEX_POINT('',#564);
#496=VERTEX_POINT('',#565);
#497=CIRCLE('',#566,0.5);
#498=VERTEX_POINT('',#567);
#499=CIRCLE('',#568,3.0);
#500=VERTEX_POINT('',#569);
#501=CIRCLE('',#570,3.0);
#502=VERTEX_POINT('',#571);
#503=CIRCLE('',#572,0.5);
#504=VERTEX_POINT('',#573);
#505=CIRCLE('',#574,2.5);
#506=CIRCLE('',#575,2.5);
#507=FILL_AREA_STYLE_COLOUR('',#576);
#508=VERTEX_POINT('',#577);
#509=LINE('',#578,#579);
#510=VERTEX_POINT('',#580);
#511=CIRCLE('',#581,3.00000000000011);
#512=VERTEX_POINT('',#582);
#513=LINE('',#583,#584);
#514=CIRCLE('',#585,3.0);
#515=FILL_AREA_STYLE_COLOUR('',#586);
#516=CIRCLE('',#587,3.00000000000011);
#517=FILL_AREA_STYLE_COLOUR('',#588);
#518=CIRCLE('',#589,3.0);
#519=FILL_AREA_STYLE_COLOUR('',#590);
#520=CIRCLE('',#591,2.5);
#521=FILL_AREA_STYLE_COLOUR('',#592);
#522=COLOUR_RGB('',0.498039215803146,0.498039215803146,0.498039215803146);
#523=CARTESIAN_POINT('',(-2.16762483449081E-15,3.0,35.4));
#524=CARTESIAN_POINT('',(6.12323399573676E-17,3.0,-1.0));
#525=CARTESIAN_POINT('',(-1.42059028701093E-15,3.0,17.2));
#526=VECTOR('',#593,1.0);
#527=CARTESIAN_POINT('',(-1.80023079474661E-15,-3.0,35.4));
#528=AXIS2_PLACEMENT_3D('',#594,#595,#596);
#529=CARTESIAN_POINT('',(4.28626379701573E-16,-3.0,-1.0));
#530=CARTESIAN_POINT('',(-6.85802207522517E-16,-3.0,17.2));
#531=VECTOR('',#597,1.0);
#532=AXIS2_PLACEMENT_3D('',#598,#599,#600);
#533=COLOUR_RGB('',0.498039215803146,0.498039215803146,0.498039215803146);
#534=CARTESIAN_POINT('',(-2.20436423846524E-15,2.40000000000001,36.0));
#535=CARTESIAN_POINT('',(-2.51664917224781E-15,2.7,35.7));
#536=VECTOR('',#601,1.0);
#537=CARTESIAN_POINT('',(-1.91044900666987E-15,-2.40000000000001,36.0));
#538=AXIS2_PLACEMENT_3D('',#602,#603,#604);
#539=CARTESIAN_POINT('',(-1.85533990070824E-15,-2.7,35.7));
#540=VECTOR('',#605,1.0);
#541=COLOUR_RGB('',0.498039215803146,0.498039215803146,0.498039215803146);
#542=CARTESIAN_POINT('',(6.12323399573676E-17,2.90000000000001,-1.0));
#543=CARTESIAN_POINT('',(4.89858719658941E-16,2.90000000000001,-8.0));
#544=CARTESIAN_POINT('',(-7.96020419445783E-17,2.9,-4.5));
#545=VECTOR('',#606,1.0);
#546=CARTESIAN_POINT('',(4.16379911710101E-16,-2.9,-1.0));
#547=AXIS2_PLACEMENT_3D('',#607,#608,#609);
#548=CARTESIAN_POINT('',(8.45006291411674E-16,-2.9,-8.0));
#549=CARTESIAN_POINT('',(6.30693101560887E-16,-2.9,-4.5));
#550=VECTOR('',#610,1.0);
#551=AXIS2_PLACEMENT_3D('',#611,#612,#613);
#552=COLOUR_RGB('',0.498039215803146,0.498039215803146,0.498039215803146);
#553=AXIS2_PLACEMENT_3D('',#614,#615,#616);
#554=AXIS2_PLACEMENT_3D('',#617,#618,#619);
#555=COLOUR_RGB('',0.498039215803146,0.498039215803146,0.498039215803146);
#556=COLOUR_RGB('',0.498039215803146,0.498039215803146,0.498039215803146);
#557=AXIS2_PLACEMENT_3D('',#620,#621,#622);
#558=COLOUR_RGB('',0.498039215803146,0.498039215803146,0.498039215803146);
#559=AXIS2_PLACEMENT_3D('',#623,#624,#625);
#560=COLOUR_RGB('',0.498039215803146,0.498039215803146,0.498039215803146);
#561=AXIS2_PLACEMENT_3D('',#626,#627,#628);
#562=COLOUR_RGB('',0.498039215803146,0.498039215803146,0.498039215803146);
#563=COLOUR_RGB('',0.800000011920929,0.800000011920929,0.800000011920929);
#564=CARTESIAN_POINT('',(-3.0,-3.67394039744206E-16,-20.5));
#565=CARTESIAN_POINT('',(-2.5,-3.06161699786838E-16,-21.0));
#566=AXIS2_PLACEMENT_3D('',#629,#630,#631);
#567=CARTESIAN_POINT('',(1.25526296912604E-15,3.0,-20.5));
#568=AXIS2_PLACEMENT_3D('',#632,#633,#634);
#569=CARTESIAN_POINT('',(3.0,3.67394039744206E-16,-20.5));
#570=AXIS2_PLACEMENT_3D('',#635,#636,#637);
#571=CARTESIAN_POINT('',(2.5,3.06161699786838E-16,-21.0));
#572=AXIS2_PLACEMENT_3D('',#638,#639,#640);
#573=CARTESIAN_POINT('',(1.28587913910472E-15,2.5,-21.0));
#574=AXIS2_PLACEMENT_3D('',#641,#642,#643);
#575=AXIS2_PLACEMENT_3D('',#644,#645,#646);
#576=COLOUR_RGB('',0.800000011920929,0.800000011920929,0.800000011920929);
#577=CARTESIAN_POINT('',(4.89858719658941E-16,3.00000000000011,-8.0));
#578=CARTESIAN_POINT('',(5.05166804648276E-16,3.00000000000006,-14.25));
#579=VECTOR('',#647,1.0);
#580=CARTESIAN_POINT('',(8.57252759403161E-16,-3.00000000000011,-8.0));
#581=AXIS2_PLACEMENT_3D('',#648,#649,#650);
#582=CARTESIAN_POINT('',(1.62265700887024E-15,-3.0,-20.5));
#583=CARTESIAN_POINT('',(1.2399548841367E-15,-3.00000000000006,-14.25));
#584=VECTOR('',#651,1.0);
#585=AXIS2_PLACEMENT_3D('',#652,#653,#654);
#586=COLOUR_RGB('',0.800000011920929,0.800000011920929,0.800000011920929);
#587=AXIS2_PLACEMENT_3D('',#655,#656,#657);
#588=COLOUR_RGB('',0.800000011920929,0.800000011920929,0.800000011920929);
#589=AXIS2_PLACEMENT_3D('',#658,#659,#660);
#590=COLOUR_RGB('',0.800000011920929,0.800000011920929,0.800000011920929);
#591=AXIS2_PLACEMENT_3D('',#661,#662,#663);
#592=COLOUR_RGB('',0.800000011920929,0.800000011920929,0.800000011920929);
#593=DIRECTION('',(6.12323399573676E-17,0.0,-1.0));
#594=CARTESIAN_POINT('',(-2.16762483449081E-15,0.0,35.4));
#595=DIRECTION('',(6.12323399573676E-17,0.0,-1.0));
#596=DIRECTION('',(0.0,1.0,0.0));
#597=DIRECTION('',(-6.12323399573676E-17,-0.0,1.0));
#598=CARTESIAN_POINT('',(6.12323399573676E-17,0.0,-1.0));
#599=DIRECTION('',(6.12323399573676E-17,0.0,-1.0));
#600=DIRECTION('',(0.0,1.0,0.0));
#601=DIRECTION('',(-4.32978028117716E-17,0.707106781186531,-0.707106781186564));
#602=CARTESIAN_POINT('',(-2.20436423846524E-15,0.0,36.0));
#603=DIRECTION('',(6.12323399573676E-17,0.0,-1.0));
#604=DIRECTION('',(0.0,1.0,0.0));
#605=DIRECTION('',(-1.29893408435323E-16,0.707106781186531,0.707106781186564));
#606=DIRECTION('',(6.12323399573677E-17,0.0,-1.0));
#607=CARTESIAN_POINT('',(6.12323399573676E-17,0.0,-1.0));
#608=DIRECTION('',(6.12323399573677E-17,0.0,-1.0));
#609=DIRECTION('',(0.0,1.0,0.0));
#610=DIRECTION('',(-6.12323399573677E-17,-0.0,1.0));
#611=CARTESIAN_POINT('',(4.89858719658941E-16,0.0,-8.0));
#612=DIRECTION('',(6.12323399573677E-17,0.0,-1.0));
#613=DIRECTION('',(0.0,1.0,0.0));
#614=CARTESIAN_POINT('',(4.89858719658941E-16,0.0,-8.0));
#615=DIRECTION('',(6.12323399573677E-17,0.0,-1.0));
#616=DIRECTION('',(0.0,1.0,0.0));
#617=CARTESIAN_POINT('',(6.12323399573676E-17,0.0,-1.0));
#618=DIRECTION('',(6.12323399573677E-17,0.0,-1.0));
#619=DIRECTION('',(0.0,1.0,0.0));
#620=CARTESIAN_POINT('',(-2.20436423846524E-15,0.0,36.0));
#621=DIRECTION('',(6.12323399573676E-17,0.0,-1.0));
#622=DIRECTION('',(0.0,1.0,0.0));
#623=CARTESIAN_POINT('',(-2.16762483449081E-15,0.0,35.4));
#624=DIRECTION('',(6.12323399573676E-17,0.0,-1.0));
#625=DIRECTION('',(0.0,1.0,0.0));
#626=CARTESIAN_POINT('',(6.12323399573676E-17,0.0,-1.0));
#627=DIRECTION('',(6.12323399573676E-17,0.0,-1.0));
#628=DIRECTION('',(0.0,1.0,0.0));
#629=CARTESIAN_POINT('',(-2.5,-3.06161699786838E-16,-20.5));
#630=DIRECTION('',(1.22464679914735E-16,-1.0,7.49879891330929E-33));
#631=DIRECTION('',(-1.0,-1.22464679914735E-16,-6.12323399573677E-17));
#632=CARTESIAN_POINT('',(1.25526296912604E-15,0.0,-20.5));
#633=DIRECTION('',(6.12323399573676E-17,0.0,-1.0));
#634=DIRECTION('',(0.0,1.0,0.0));
#635=CARTESIAN_POINT('',(1.25526296912604E-15,0.0,-20.5));
#636=DIRECTION('',(6.12323399573676E-17,0.0,-1.0));
#637=DIRECTION('',(0.0,1.0,0.0));
#638=CARTESIAN_POINT('',(2.5,3.06161699786838E-16,-20.5));
#639=DIRECTION('',(1.22464679914735E-16,-1.0,7.49879891330929E-33));
#640=DIRECTION('',(1.0,1.22464679914735E-16,6.12323399573677E-17));
#641=CARTESIAN_POINT('',(1.28587913910472E-15,0.0,-21.0));
#642=DIRECTION('',(6.12323399573677E-17,0.0,-1.0));
#643=DIRECTION('',(0.0,1.0,0.0));
#644=CARTESIAN_POINT('',(1.28587913910472E-15,0.0,-21.0));
#645=DIRECTION('',(6.12323399573677E-17,0.0,-1.0));
#646=DIRECTION('',(0.0,1.0,0.0));
#647=DIRECTION('',(6.12323399573677E-17,0.0,-1.0));
#648=CARTESIAN_POINT('',(4.89858719658941E-16,0.0,-8.0));
#649=DIRECTION('',(6.12323399573677E-17,0.0,-1.0));
#650=DIRECTION('',(0.0,1.0,0.0));
#651=DIRECTION('',(-6.12323399573677E-17,-0.0,1.0));
#652=CARTESIAN_POINT('',(1.25526296912604E-15,0.0,-20.5));
#653=DIRECTION('',(6.12323399573676E-17,0.0,-1.0));
#654=DIRECTION('',(0.0,1.0,0.0));
#655=CARTESIAN_POINT('',(4.89858719658941E-16,0.0,-8.0));
#656=DIRECTION('',(6.12323399573677E-17,0.0,-1.0));
#657=DIRECTION('',(0.0,1.0,0.0));
#658=CARTESIAN_POINT('',(1.25526296912604E-15,0.0,-20.5));
#659=DIRECTION('',(6.12323399573676E-17,0.0,-1.0));
#660=DIRECTION('',(0.0,1.0,0.0));
#661=CARTESIAN_POINT('',(1.28587913910472E-15,0.0,-21.0));
#662=DIRECTION('',(6.12323399573677E-17,0.0,-1.0));
#663=DIRECTION('',(0.0,1.0,0.0));
#664=DIRECTION('',(0.0,0.0,1.0));
#665=DIRECTION('',(1.0,0.0,0.0));
#666=CARTESIAN_POINT('',(0.0,0.0,36.000000));
#667=AXIS2_PLACEMENT_3D('PCS', #666,#664,#665);
#668=CARTESIAN_POINT('',(0.0,0.0,0.000000));
#669=AXIS2_PLACEMENT_3D('MCS', #668,#664,#665);
#670=CARTESIAN_POINT('',(0.0,0.0,-21.000000));
#671=AXIS2_PLACEMENT_3D('CIP', #670,#664,#665);
ENDSEC;
END-ISO-10303-21;
