ISO-10303-21;
HEADER;
FILE_DESCRIPTION(('STEP AP214'),'1');
FILE_NAME('607968921-000-00-E43.stp','2023-07-18T05:15:43',(' '),(' '),'Spatial InterOp 3D',' ',' ');
FILE_SCHEMA(('AUTOMOTIVE_DESIGN { 1 0 10303 214 1 1 1 1 }'));
ENDSEC;
DATA;
#1=MECHANICAL_DESIGN_GEOMETRIC_PRESENTATION_REPRESENTATION(' ',(#12,#13,#14,#15,#16,#17,#18,#19,#20,#21,#22,#23,#24,#25),#8);
#2=PRODUCT_DEFINITION_CONTEXT('',#26,'design');
#3=APPLICATION_PROTOCOL_DEFINITION('INTERNATIONAL STANDARD','automotive_design',1994,#26);
#4=PRODUCT_CATEGORY_RELATIONSHIP('NONE','NONE',#27,#28);
#5=SHAPE_DEFINITION_REPRESENTATION(#29,#30);
#6=SHAPE_DEFINITION_REPRESENTATION(#29,#31);
#7=SHAPE_DEFINITION_REPRESENTATION(#29,#32);
#8= (GEOMETRIC_REPRESENTATION_CONTEXT(3)GLOBAL_UNCERTAINTY_ASSIGNED_CONTEXT((#35))GLOBAL_UNIT_ASSIGNED_CONTEXT((#37,#38,#39))REPRESENTATION_CONTEXT('NONE','WORKSPACE'));
#12=STYLED_ITEM('',(#41),#42);
#13=STYLED_ITEM('',(#43),#44);
#14=STYLED_ITEM('',(#45),#46);
#15=STYLED_ITEM('',(#47),#48);
#16=STYLED_ITEM('',(#49),#50);
#17=STYLED_ITEM('',(#51),#52);
#18=STYLED_ITEM('',(#53),#54);
#19=STYLED_ITEM('',(#55),#56);
#20=STYLED_ITEM('',(#57),#58);
#21=STYLED_ITEM('',(#59),#60);
#22=STYLED_ITEM('',(#61),#62);
#23=STYLED_ITEM('',(#63),#64);
#24=STYLED_ITEM('',(#65),#66);
#25=STYLED_ITEM('',(#67),#68);
#26=APPLICATION_CONTEXT(' ');
#27=PRODUCT_CATEGORY('part','NONE');
#28=PRODUCT_RELATED_PRODUCT_CATEGORY('detail',' ',(#69));
#29=PRODUCT_DEFINITION_SHAPE('NONE','NONE',#70);
#30=ADVANCED_BREP_SHAPE_REPRESENTATION('1',(#71,#72),#8);
#31=ADVANCED_BREP_SHAPE_REPRESENTATION('2',(#73,#74),#8);
#32=GEOMETRICALLY_BOUNDED_SURFACE_SHAPE_REPRESENTATION('3',(#75,#76),#8);
#35=UNCERTAINTY_MEASURE_WITH_UNIT(LENGTH_MEASURE(1.0E-06),#37,'','');
#37= (CONVERSION_BASED_UNIT('MILLIMETRE',#79)LENGTH_UNIT()NAMED_UNIT(#82));
#38= (NAMED_UNIT(#84)PLANE_ANGLE_UNIT()SI_UNIT($,.RADIAN.));
#39= (NAMED_UNIT(#84)SOLID_ANGLE_UNIT()SI_UNIT($,.STERADIAN.));
#41=PRESENTATION_STYLE_ASSIGNMENT((#90));
#42=COMPOSITE_CURVE('',(#91),.U.);
#43=PRESENTATION_STYLE_ASSIGNMENT((#92));
#44=COMPOSITE_CURVE('',(#93,#94,#95,#96,#97),.U.);
#45=PRESENTATION_STYLE_ASSIGNMENT((#98));
#46=ADVANCED_FACE('',(#99),#100,.T.);
#47=PRESENTATION_STYLE_ASSIGNMENT((#101));
#48=ADVANCED_FACE('',(#102),#103,.T.);
#49=PRESENTATION_STYLE_ASSIGNMENT((#104));
#50=ADVANCED_FACE('',(#105),#106,.T.);
#51=PRESENTATION_STYLE_ASSIGNMENT((#107));
#52=ADVANCED_FACE('',(#108),#109,.T.);
#53=PRESENTATION_STYLE_ASSIGNMENT((#110));
#54=ADVANCED_FACE('',(#111),#112,.T.);
#55=PRESENTATION_STYLE_ASSIGNMENT((#113));
#56=ADVANCED_FACE('',(#114),#115,.T.);
#57=PRESENTATION_STYLE_ASSIGNMENT((#116));
#58=COMPOSITE_CURVE('',(#117,#118,#119,#120),.U.);
#59=PRESENTATION_STYLE_ASSIGNMENT((#121));
#60=ADVANCED_FACE('',(#122),#123,.T.);
#61=PRESENTATION_STYLE_ASSIGNMENT((#124));
#62=ADVANCED_FACE('',(#125),#126,.T.);
#63=PRESENTATION_STYLE_ASSIGNMENT((#127));
#64=ADVANCED_FACE('',(#128),#129,.T.);
#65=PRESENTATION_STYLE_ASSIGNMENT((#130));
#66=ADVANCED_FACE('',(#131),#132,.T.);
#67=PRESENTATION_STYLE_ASSIGNMENT((#133));
#68=ADVANCED_FACE('',(#134),#135,.T.);
#69=PRODUCT('1','','PART--DESC',(#136));
#70=PRODUCT_DEFINITION('','NONE',#137,#2);
#71=MANIFOLD_SOLID_BREP('1',#138);
#72=AXIS2_PLACEMENT_3D('',#139,#140,#141);
#73=MANIFOLD_SOLID_BREP('2',#142);
#74=AXIS2_PLACEMENT_3D('',#143,#144,#145);
#75=GEOMETRIC_SET('3',(#42,#44,#58));
#76=AXIS2_PLACEMENT_3D('',#146,#147,#148);
#79=LENGTH_MEASURE_WITH_UNIT(LENGTH_MEASURE(1.0),#149);
#82=DIMENSIONAL_EXPONENTS(1.0,0.0,0.0,0.0,0.0,0.0,0.0);
#84=DIMENSIONAL_EXPONENTS(0.0,0.0,0.0,0.0,0.0,0.0,0.0);
#90=CURVE_STYLE('',#150,POSITIVE_LENGTH_MEASURE(1.0E-06),#151);
#91=COMPOSITE_CURVE_SEGMENT(.CONTINUOUS.,.T.,#152);
#92=CURVE_STYLE('',#153,POSITIVE_LENGTH_MEASURE(1.0E-06),#154);
#93=COMPOSITE_CURVE_SEGMENT(.CONTINUOUS.,.T.,#155);
#94=COMPOSITE_CURVE_SEGMENT(.CONTINUOUS.,.T.,#156);
#95=COMPOSITE_CURVE_SEGMENT(.CONTINUOUS.,.T.,#157);
#96=COMPOSITE_CURVE_SEGMENT(.CONTINUOUS.,.T.,#158);
#97=COMPOSITE_CURVE_SEGMENT(.CONTINUOUS.,.T.,#159);
#98=SURFACE_STYLE_USAGE(.BOTH.,#160);
#99=FACE_OUTER_BOUND('',#161,.T.);
#100=CYLINDRICAL_SURFACE('',#162,2.0);
#101=SURFACE_STYLE_USAGE(.BOTH.,#163);
#102=FACE_OUTER_BOUND('',#164,.T.);
#103=CONICAL_SURFACE('',#165,1.8,0.785398163397448);
#104=SURFACE_STYLE_USAGE(.BOTH.,#166);
#105=FACE_OUTER_BOUND('',#167,.T.);
#106=PLANE('',#168);
#107=SURFACE_STYLE_USAGE(.BOTH.,#169);
#108=FACE_OUTER_BOUND('',#170,.T.);
#109=CONICAL_SURFACE('',#171,1.8,0.785398163397448);
#110=SURFACE_STYLE_USAGE(.BOTH.,#172);
#111=FACE_OUTER_BOUND('',#173,.T.);
#112=CYLINDRICAL_SURFACE('',#174,2.0);
#113=SURFACE_STYLE_USAGE(.BOTH.,#175);
#114=FACE_OUTER_BOUND('',#176,.T.);
#115=PLANE('',#177);
#116=CURVE_STYLE('',#178,POSITIVE_LENGTH_MEASURE(1.0E-06),#179);
#117=COMPOSITE_CURVE_SEGMENT(.CONTINUOUS.,.T.,#180);
#118=COMPOSITE_CURVE_SEGMENT(.CONTINUOUS.,.T.,#181);
#119=COMPOSITE_CURVE_SEGMENT(.CONTINUOUS.,.T.,#182);
#120=COMPOSITE_CURVE_SEGMENT(.CONTINUOUS.,.T.,#183);
#121=SURFACE_STYLE_USAGE(.BOTH.,#184);
#122=FACE_OUTER_BOUND('',#185,.T.);
#123=SPHERICAL_SURFACE('',#186,2.00000000000001);
#124=SURFACE_STYLE_USAGE(.BOTH.,#187);
#125=FACE_OUTER_BOUND('',#188,.T.);
#126=CYLINDRICAL_SURFACE('',#189,1.99999999999999);
#127=SURFACE_STYLE_USAGE(.BOTH.,#190);
#128=FACE_OUTER_BOUND('',#191,.T.);
#129=PLANE('',#192);
#130=SURFACE_STYLE_USAGE(.BOTH.,#193);
#131=FACE_OUTER_BOUND('',#194,.T.);
#132=CYLINDRICAL_SURFACE('',#195,1.99999999999999);
#133=SURFACE_STYLE_USAGE(.BOTH.,#196);
#134=FACE_OUTER_BOUND('',#197,.T.);
#135=SPHERICAL_SURFACE('',#198,2.00000000000001);
#136=PRODUCT_CONTEXT('',#26,'mechanical');
#137=PRODUCT_DEFINITION_FORMATION_WITH_SPECIFIED_SOURCE(' ','NONE',#69,.NOT_KNOWN.);
#138=CLOSED_SHELL('',(#46,#48,#50,#52,#54,#56));
#139=CARTESIAN_POINT('',(0.0,0.0,0.0));
#140=DIRECTION('',(0.0,0.0,1.0));
#141=DIRECTION('',(1.0,0.0,0.0));
#142=CLOSED_SHELL('',(#60,#62,#64,#66,#68));
#143=CARTESIAN_POINT('',(0.0,0.0,0.0));
#144=DIRECTION('',(0.0,0.0,1.0));
#145=DIRECTION('',(1.0,0.0,0.0));
#146=CARTESIAN_POINT('',(0.0,0.0,0.0));
#147=DIRECTION('',(0.0,0.0,1.0));
#148=DIRECTION('',(1.0,0.0,0.0));
#149= (NAMED_UNIT(#82)LENGTH_UNIT()SI_UNIT(.MILLI.,.METRE.));
#150=DRAUGHTING_PRE_DEFINED_CURVE_FONT('continuous');
#151=COLOUR_RGB('',0.0,1.0,0.0);
#152=TRIMMED_CURVE('',#200,(PARAMETER_VALUE(0.0)),(PARAMETER_VALUE(2.0)),.T.,.UNSPECIFIED.);
#153=DRAUGHTING_PRE_DEFINED_CURVE_FONT('continuous');
#154=COLOUR_RGB('',0.498039215803146,0.498039215803146,0.498039215803146);
#155=TRIMMED_CURVE('',#201,(PARAMETER_VALUE(0.0)),(PARAMETER_VALUE(2.0)),.T.,.UNSPECIFIED.);
#156=TRIMMED_CURVE('',#202,(PARAMETER_VALUE(0.0)),(PARAMETER_VALUE(39.5999999999999)),.T.,.UNSPECIFIED.);
#157=TRIMMED_CURVE('',#203,(PARAMETER_VALUE(0.0)),(PARAMETER_VALUE(0.565685424949246)),.T.,.UNSPECIFIED.);
#158=TRIMMED_CURVE('',#204,(PARAMETER_VALUE(0.0)),(PARAMETER_VALUE(1.59999999999999)),.T.,.UNSPECIFIED.);
#159=TRIMMED_CURVE('',#205,(PARAMETER_VALUE(0.0)),(PARAMETER_VALUE(39.9999999999999)),.T.,.UNSPECIFIED.);
#160=SURFACE_SIDE_STYLE('',(#206));
#161=EDGE_LOOP('',(#207,#208,#209,#210));
#162=AXIS2_PLACEMENT_3D('',#211,#212,#213);
#163=SURFACE_SIDE_STYLE('',(#214));
#164=EDGE_LOOP('',(#215,#216,#217,#218));
#165=AXIS2_PLACEMENT_3D('',#219,#220,#221);
#166=SURFACE_SIDE_STYLE('',(#222));
#167=EDGE_LOOP('',(#223,#224));
#168=AXIS2_PLACEMENT_3D('',#225,#226,#227);
#169=SURFACE_SIDE_STYLE('',(#228));
#170=EDGE_LOOP('',(#229,#230,#231,#232));
#171=AXIS2_PLACEMENT_3D('',#233,#234,#235);
#172=SURFACE_SIDE_STYLE('',(#236));
#173=EDGE_LOOP('',(#237,#238,#239,#240));
#174=AXIS2_PLACEMENT_3D('',#241,#242,#243);
#175=SURFACE_SIDE_STYLE('',(#244));
#176=EDGE_LOOP('',(#245,#246));
#177=AXIS2_PLACEMENT_3D('',#247,#248,#249);
#178=DRAUGHTING_PRE_DEFINED_CURVE_FONT('continuous');
#179=COLOUR_RGB('',0.0,0.0,1.0);
#180=TRIMMED_CURVE('',#250,(PARAMETER_VALUE(-0.785398163397445)),(PARAMETER_VALUE(0.785398163397445)),.T.,.UNSPECIFIED.);
#181=TRIMMED_CURVE('',#251,(PARAMETER_VALUE(0.0)),(PARAMETER_VALUE(18.0)),.T.,.UNSPECIFIED.);
#182=TRIMMED_CURVE('',#252,(PARAMETER_VALUE(0.0)),(PARAMETER_VALUE(2.0)),.T.,.UNSPECIFIED.);
#183=TRIMMED_CURVE('',#253,(PARAMETER_VALUE(0.0)),(PARAMETER_VALUE(20.0000000000001)),.T.,.UNSPECIFIED.);
#184=SURFACE_SIDE_STYLE('',(#254));
#185=EDGE_LOOP('',(#255,#256,#257));
#186=AXIS2_PLACEMENT_3D('',#258,#259,#260);
#187=SURFACE_SIDE_STYLE('',(#261));
#188=EDGE_LOOP('',(#262,#263,#264,#265,#266));
#189=AXIS2_PLACEMENT_3D('',#267,#268,#269);
#190=SURFACE_SIDE_STYLE('',(#270));
#191=EDGE_LOOP('',(#271,#272));
#192=AXIS2_PLACEMENT_3D('',#273,#274,#275);
#193=SURFACE_SIDE_STYLE('',(#276));
#194=EDGE_LOOP('',(#277,#278,#279,#280,#281));
#195=AXIS2_PLACEMENT_3D('',#282,#283,#284);
#196=SURFACE_SIDE_STYLE('',(#285));
#197=EDGE_LOOP('',(#286,#287,#288));
#198=AXIS2_PLACEMENT_3D('',#289,#290,#291);
#200=LINE('',#292,#293);
#201=LINE('',#294,#295);
#202=LINE('',#296,#297);
#203=LINE('',#298,#299);
#204=LINE('',#300,#301);
#205=LINE('',#302,#303);
#206=SURFACE_STYLE_FILL_AREA(#304);
#207=ORIENTED_EDGE('',*,*,#305,.F.);
#208=ORIENTED_EDGE('',*,*,#306,.T.);
#209=ORIENTED_EDGE('',*,*,#307,.F.);
#210=ORIENTED_EDGE('',*,*,#308,.F.);
#211=CARTESIAN_POINT('',(-4.77612251667469E-16,0.0,7.80000000000003));
#212=DIRECTION('',(6.12323399573677E-17,0.0,-1.0));
#213=DIRECTION('',(0.0,1.0,0.0));
#214=SURFACE_STYLE_FILL_AREA(#309);
#215=ORIENTED_EDGE('',*,*,#310,.F.);
#216=ORIENTED_EDGE('',*,*,#311,.T.);
#217=ORIENTED_EDGE('',*,*,#312,.F.);
#218=ORIENTED_EDGE('',*,*,#306,.F.);
#219=CARTESIAN_POINT('',(-1.70225905081482E-15,0.0,27.8));
#220=DIRECTION('',(6.12323399573677E-17,-0.0,-1.0));
#221=DIRECTION('',(0.0,1.0,0.0));
#222=SURFACE_STYLE_FILL_AREA(#313);
#223=ORIENTED_EDGE('',*,*,#311,.F.);
#224=ORIENTED_EDGE('',*,*,#314,.F.);
#225=CARTESIAN_POINT('',(-1.71450551880629E-15,0.799999999999997,28.0));
#226=DIRECTION('',(-6.12323399573677E-17,0.0,1.0));
#227=DIRECTION('',(0.0,-1.0,0.0));
#228=SURFACE_STYLE_FILL_AREA(#315);
#229=ORIENTED_EDGE('',*,*,#310,.T.);
#230=ORIENTED_EDGE('',*,*,#316,.F.);
#231=ORIENTED_EDGE('',*,*,#312,.T.);
#232=ORIENTED_EDGE('',*,*,#314,.T.);
#233=CARTESIAN_POINT('',(-1.70225905081482E-15,0.0,27.8));
#234=DIRECTION('',(6.12323399573677E-17,-0.0,-1.0));
#235=DIRECTION('',(0.0,1.0,0.0));
#236=SURFACE_STYLE_FILL_AREA(#317);
#237=ORIENTED_EDGE('',*,*,#305,.T.);
#238=ORIENTED_EDGE('',*,*,#318,.F.);
#239=ORIENTED_EDGE('',*,*,#307,.T.);
#240=ORIENTED_EDGE('',*,*,#316,.T.);
#241=CARTESIAN_POINT('',(-4.77612251667469E-16,0.0,7.80000000000003));
#242=DIRECTION('',(6.12323399573677E-17,0.0,-1.0));
#243=DIRECTION('',(0.0,1.0,0.0));
#244=SURFACE_STYLE_FILL_AREA(#319);
#245=ORIENTED_EDGE('',*,*,#308,.T.);
#246=ORIENTED_EDGE('',*,*,#318,.T.);
#247=CARTESIAN_POINT('',(7.34788079488409E-16,1.0,-11.9999999999999));
#248=DIRECTION('',(6.12323399573677E-17,0.0,-1.0));
#249=DIRECTION('',(0.0,1.0,0.0));
#250=CIRCLE('',#320,2.0);
#251=LINE('',#321,#322);
#252=LINE('',#323,#324);
#253=LINE('',#325,#326);
#254=SURFACE_STYLE_FILL_AREA(#327);
#255=ORIENTED_EDGE('',*,*,#328,.F.);
#256=ORIENTED_EDGE('',*,*,#329,.T.);
#257=ORIENTED_EDGE('',*,*,#330,.T.);
#258=CARTESIAN_POINT('',(1.83697019872103E-15,0.0,-30.0));
#259=DIRECTION('',(1.0,0.0,6.12323399573677E-17));
#260=DIRECTION('',(6.12323399573677E-17,0.0,-1.0));
#261=SURFACE_STYLE_FILL_AREA(#331);
#262=ORIENTED_EDGE('',*,*,#332,.F.);
#263=ORIENTED_EDGE('',*,*,#333,.T.);
#264=ORIENTED_EDGE('',*,*,#334,.F.);
#265=ORIENTED_EDGE('',*,*,#335,.F.);
#266=ORIENTED_EDGE('',*,*,#330,.F.);
#267=CARTESIAN_POINT('',(1.28587913910472E-15,0.0,-21.0));
#268=DIRECTION('',(6.12323399573676E-17,0.0,-1.0));
#269=DIRECTION('',(0.0,1.0,0.0));
#270=SURFACE_STYLE_FILL_AREA(#336);
#271=ORIENTED_EDGE('',*,*,#333,.F.);
#272=ORIENTED_EDGE('',*,*,#337,.F.);
#273=CARTESIAN_POINT('',(7.34788079488409E-16,1.0,-11.9999999999999));
#274=DIRECTION('',(-6.12323399573677E-17,0.0,1.0));
#275=DIRECTION('',(0.0,-1.0,0.0));
#276=SURFACE_STYLE_FILL_AREA(#338);
#277=ORIENTED_EDGE('',*,*,#332,.T.);
#278=ORIENTED_EDGE('',*,*,#329,.F.);
#279=ORIENTED_EDGE('',*,*,#339,.F.);
#280=ORIENTED_EDGE('',*,*,#334,.T.);
#281=ORIENTED_EDGE('',*,*,#337,.T.);
#282=CARTESIAN_POINT('',(1.28587913910472E-15,0.0,-21.0));
#283=DIRECTION('',(6.12323399573676E-17,0.0,-1.0));
#284=DIRECTION('',(0.0,1.0,0.0));
#285=SURFACE_STYLE_FILL_AREA(#340);
#286=ORIENTED_EDGE('',*,*,#328,.T.);
#287=ORIENTED_EDGE('',*,*,#335,.T.);
#288=ORIENTED_EDGE('',*,*,#339,.T.);
#289=CARTESIAN_POINT('',(1.83697019872103E-15,0.0,-30.0));
#290=DIRECTION('',(1.0,0.0,6.12323399573677E-17));
#291=DIRECTION('',(6.12323399573677E-17,0.0,-1.0));
#292=CARTESIAN_POINT('',(0.0,2.0,0.0));
#293=VECTOR('',#341,1.0);
#294=CARTESIAN_POINT('',(7.34788079488408E-16,0.0,-11.9999999999999));
#295=VECTOR('',#342,1.0);
#296=CARTESIAN_POINT('',(7.34788079488408E-16,2.0,-11.9999999999999));
#297=VECTOR('',#343,1.0);
#298=CARTESIAN_POINT('',(-1.69001258282335E-15,2.0,27.6));
#299=VECTOR('',#344,1.0);
#300=CARTESIAN_POINT('',(-1.71450551880629E-15,1.59999999999999,28.0));
#301=VECTOR('',#345,1.0);
#302=CARTESIAN_POINT('',(-1.71450551880629E-15,0.0,28.0));
#303=VECTOR('',#346,1.0);
#304=FILL_AREA_STYLE('',(#347));
#305=EDGE_CURVE('',#348,#349,#350,.T.);
#306=EDGE_CURVE('',#348,#351,#352,.T.);
#307=EDGE_CURVE('',#353,#351,#354,.T.);
#308=EDGE_CURVE('',#349,#353,#355,.T.);
#309=FILL_AREA_STYLE('',(#356));
#310=EDGE_CURVE('',#357,#348,#358,.T.);
#311=EDGE_CURVE('',#357,#359,#360,.T.);
#312=EDGE_CURVE('',#351,#359,#361,.T.);
#313=FILL_AREA_STYLE('',(#362));
#314=EDGE_CURVE('',#359,#357,#363,.T.);
#315=FILL_AREA_STYLE('',(#364));
#316=EDGE_CURVE('',#351,#348,#365,.T.);
#317=FILL_AREA_STYLE('',(#366));
#318=EDGE_CURVE('',#353,#349,#367,.T.);
#319=FILL_AREA_STYLE('',(#368));
#320=AXIS2_PLACEMENT_3D('',#369,#370,#371);
#321=CARTESIAN_POINT('',(1.83697019872103E-15,1.99999999999999,-30.0));
#322=VECTOR('',#372,1.0);
#323=CARTESIAN_POINT('',(7.34788079488408E-16,2.0,-11.9999999999999));
#324=VECTOR('',#373,1.0);
#325=CARTESIAN_POINT('',(7.34788079488408E-16,0.0,-11.9999999999999));
#326=VECTOR('',#374,1.0);
#327=FILL_AREA_STYLE('',(#375));
#328=EDGE_CURVE('',#376,#377,#378,.T.);
#329=EDGE_CURVE('',#376,#379,#380,.T.);
#330=EDGE_CURVE('',#379,#377,#381,.T.);
#331=FILL_AREA_STYLE('',(#382));
#332=EDGE_CURVE('',#383,#379,#384,.T.);
#333=EDGE_CURVE('',#383,#385,#386,.T.);
#334=EDGE_CURVE('',#387,#385,#388,.T.);
#335=EDGE_CURVE('',#377,#387,#389,.T.);
#336=FILL_AREA_STYLE('',(#390));
#337=EDGE_CURVE('',#385,#383,#391,.T.);
#338=FILL_AREA_STYLE('',(#392));
#339=EDGE_CURVE('',#387,#376,#393,.T.);
#340=FILL_AREA_STYLE('',(#394));
#341=DIRECTION('',(0.0,-1.0,0.0));
#342=DIRECTION('',(0.0,1.0,0.0));
#343=DIRECTION('',(-6.12323399573677E-17,0.0,1.0));
#344=DIRECTION('',(-4.32978028117745E-17,-0.707106781186547,0.707106781186547));
#345=DIRECTION('',(0.0,-1.0,0.0));
#346=DIRECTION('',(6.12323399573677E-17,0.0,-1.0));
#347=FILL_AREA_STYLE_COLOUR('',#395);
#348=VERTEX_POINT('',#396);
#349=VERTEX_POINT('',#397);
#350=LINE('',#398,#399);
#351=VERTEX_POINT('',#400);
#352=CIRCLE('',#401,2.0);
#353=VERTEX_POINT('',#402);
#354=LINE('',#403,#404);
#355=CIRCLE('',#405,2.0);
#356=FILL_AREA_STYLE_COLOUR('',#406);
#357=VERTEX_POINT('',#407);
#358=LINE('',#408,#409);
#359=VERTEX_POINT('',#410);
#360=CIRCLE('',#411,1.59999999999999);
#361=LINE('',#412,#413);
#362=FILL_AREA_STYLE_COLOUR('',#414);
#363=CIRCLE('',#415,1.59999999999999);
#364=FILL_AREA_STYLE_COLOUR('',#416);
#365=CIRCLE('',#417,2.0);
#366=FILL_AREA_STYLE_COLOUR('',#418);
#367=CIRCLE('',#419,2.0);
#368=FILL_AREA_STYLE_COLOUR('',#420);
#369=CARTESIAN_POINT('',(1.83697019872103E-15,-1.77635683940025E-14,-30.0));
#370=DIRECTION('',(1.0,0.0,6.12323399573676E-17));
#371=DIRECTION('',(4.32978028117744E-17,0.707106781186551,-0.707106781186544));
#372=DIRECTION('',(-6.12323399573676E-17,7.89491928622331E-16,1.0));
#373=DIRECTION('',(0.0,-1.0,0.0));
#374=DIRECTION('',(6.12323399573677E-17,0.0,-1.0));
#375=FILL_AREA_STYLE_COLOUR('',#421);
#376=VERTEX_POINT('',#422);
#377=VERTEX_POINT('',#423);
#378=CIRCLE('',#424,2.00000000000001);
#379=VERTEX_POINT('',#425);
#380=CIRCLE('',#426,1.99999999999999);
#381=CIRCLE('',#427,1.99999999999999);
#382=FILL_AREA_STYLE_COLOUR('',#428);
#383=VERTEX_POINT('',#429);
#384=LINE('',#430,#431);
#385=VERTEX_POINT('',#432);
#386=CIRCLE('',#433,2.0);
#387=VERTEX_POINT('',#434);
#388=LINE('',#435,#436);
#389=CIRCLE('',#437,1.99999999999999);
#390=FILL_AREA_STYLE_COLOUR('',#438);
#391=CIRCLE('',#439,2.0);
#392=FILL_AREA_STYLE_COLOUR('',#440);
#393=CIRCLE('',#441,1.99999999999999);
#394=FILL_AREA_STYLE_COLOUR('',#442);
#395=COLOUR_RGB('',0.498039215803146,0.498039215803146,0.498039215803146);
#396=CARTESIAN_POINT('',(-1.69001258282335E-15,2.0,27.6));
#397=CARTESIAN_POINT('',(7.34788079488409E-16,2.0,-11.9999999999999));
#398=CARTESIAN_POINT('',(-7.2254161149694E-16,2.0,7.80000000000003));
#399=VECTOR('',#443,1.0);
#400=CARTESIAN_POINT('',(-1.44508322299388E-15,-2.0,27.6));
#401=AXIS2_PLACEMENT_3D('',#444,#445,#446);
#402=CARTESIAN_POINT('',(9.79717439317879E-16,-2.0,-11.9999999999999));
#403=CARTESIAN_POINT('',(-2.32682891837999E-16,-2.0,7.80000000000003));
#404=VECTOR('',#447,1.0);
#405=AXIS2_PLACEMENT_3D('',#448,#449,#450);
#406=COLOUR_RGB('',0.498039215803146,0.498039215803146,0.498039215803146);
#407=CARTESIAN_POINT('',(-1.71450551880629E-15,1.59999999999999,28.0));
#408=CARTESIAN_POINT('',(-1.92269547466134E-15,1.8,27.8));
#409=VECTOR('',#451,1.0);
#410=CARTESIAN_POINT('',(-1.51856203094272E-15,-1.59999999999999,28.0));
#411=AXIS2_PLACEMENT_3D('',#452,#453,#454);
#412=CARTESIAN_POINT('',(-1.4818226269683E-15,-1.8,27.8));
#413=VECTOR('',#455,1.0);
#414=COLOUR_RGB('',0.498039215803146,0.498039215803146,0.498039215803146);
#415=AXIS2_PLACEMENT_3D('',#456,#457,#458);
#416=COLOUR_RGB('',0.498039215803146,0.498039215803146,0.498039215803146);
#417=AXIS2_PLACEMENT_3D('',#459,#460,#461);
#418=COLOUR_RGB('',0.498039215803146,0.498039215803146,0.498039215803146);
#419=AXIS2_PLACEMENT_3D('',#462,#463,#464);
#420=COLOUR_RGB('',0.498039215803146,0.498039215803146,0.498039215803146);
#421=COLOUR_RGB('',0.800000011920929,0.800000011920929,0.800000011920929);
#422=CARTESIAN_POINT('',(-1.99999999999998,-1.74032777401202E-30,-30.0));
#423=CARTESIAN_POINT('',(1.99999999999999,-1.74032777401202E-30,-30.0));
#424=AXIS2_PLACEMENT_3D('',#465,#466,#467);
#425=CARTESIAN_POINT('',(1.83697019872103E-15,1.99999999999999,-30.0));
#426=AXIS2_PLACEMENT_3D('',#468,#469,#470);
#427=AXIS2_PLACEMENT_3D('',#471,#472,#473);
#428=COLOUR_RGB('',0.800000011920929,0.800000011920929,0.800000011920929);
#429=CARTESIAN_POINT('',(7.34788079488409E-16,2.0,-11.9999999999999));
#430=CARTESIAN_POINT('',(1.04094977927525E-15,1.99999999999999,-21.0));
#431=VECTOR('',#474,1.0);
#432=CARTESIAN_POINT('',(9.79717439317879E-16,-2.0,-11.9999999999999));
#433=AXIS2_PLACEMENT_3D('',#475,#476,#477);
#434=CARTESIAN_POINT('',(2.0818995585505E-15,-1.99999999999999,-30.0));
#435=CARTESIAN_POINT('',(1.53080849893419E-15,-1.99999999999999,-21.0));
#436=VECTOR('',#478,1.0);
#437=AXIS2_PLACEMENT_3D('',#479,#480,#481);
#438=COLOUR_RGB('',0.800000011920929,0.800000011920929,0.800000011920929);
#439=AXIS2_PLACEMENT_3D('',#482,#483,#484);
#440=COLOUR_RGB('',0.800000011920929,0.800000011920929,0.800000011920929);
#441=AXIS2_PLACEMENT_3D('',#485,#486,#487);
#442=COLOUR_RGB('',0.800000011920929,0.800000011920929,0.800000011920929);
#443=DIRECTION('',(6.12323399573677E-17,0.0,-1.0));
#444=CARTESIAN_POINT('',(-1.69001258282335E-15,0.0,27.6));
#445=DIRECTION('',(6.12323399573677E-17,0.0,-1.0));
#446=DIRECTION('',(0.0,1.0,0.0));
#447=DIRECTION('',(-6.12323399573677E-17,-0.0,1.0));
#448=CARTESIAN_POINT('',(7.34788079488409E-16,0.0,-11.9999999999999));
#449=DIRECTION('',(6.12323399573677E-17,0.0,-1.0));
#450=DIRECTION('',(0.0,1.0,0.0));
#451=DIRECTION('',(-4.32978028117747E-17,0.707106781186547,-0.707106781186548));
#452=CARTESIAN_POINT('',(-1.71450551880629E-15,0.0,28.0));
#453=DIRECTION('',(6.12323399573677E-17,0.0,-1.0));
#454=DIRECTION('',(0.0,1.0,0.0));
#455=DIRECTION('',(-1.29893408435324E-16,0.707106781186547,0.707106781186548));
#456=CARTESIAN_POINT('',(-1.71450551880629E-15,0.0,28.0));
#457=DIRECTION('',(6.12323399573677E-17,0.0,-1.0));
#458=DIRECTION('',(0.0,1.0,0.0));
#459=CARTESIAN_POINT('',(-1.69001258282335E-15,0.0,27.6));
#460=DIRECTION('',(6.12323399573677E-17,0.0,-1.0));
#461=DIRECTION('',(0.0,1.0,0.0));
#462=CARTESIAN_POINT('',(7.34788079488409E-16,0.0,-11.9999999999999));
#463=DIRECTION('',(6.12323399573677E-17,0.0,-1.0));
#464=DIRECTION('',(0.0,1.0,0.0));
#465=CARTESIAN_POINT('',(1.83697019872103E-15,0.0,-30.0));
#466=DIRECTION('',(-7.49879891330928E-33,-1.0,1.22464679914735E-16));
#467=DIRECTION('',(0.0,1.22464679914735E-16,1.0));
#468=CARTESIAN_POINT('',(1.83697019872103E-15,0.0,-30.0));
#469=DIRECTION('',(6.12323399573677E-17,0.0,-1.0));
#470=DIRECTION('',(0.0,1.0,0.0));
#471=CARTESIAN_POINT('',(1.83697019872103E-15,0.0,-30.0));
#472=DIRECTION('',(6.12323399573677E-17,0.0,-1.0));
#473=DIRECTION('',(0.0,1.0,0.0));
#474=DIRECTION('',(6.12323399573677E-17,0.0,-1.0));
#475=CARTESIAN_POINT('',(7.34788079488409E-16,0.0,-11.9999999999999));
#476=DIRECTION('',(6.12323399573677E-17,0.0,-1.0));
#477=DIRECTION('',(0.0,1.0,0.0));
#478=DIRECTION('',(-6.12323399573677E-17,-0.0,1.0));
#479=CARTESIAN_POINT('',(1.83697019872103E-15,0.0,-30.0));
#480=DIRECTION('',(6.12323399573677E-17,0.0,-1.0));
#481=DIRECTION('',(0.0,1.0,0.0));
#482=CARTESIAN_POINT('',(7.34788079488409E-16,0.0,-11.9999999999999));
#483=DIRECTION('',(6.12323399573677E-17,0.0,-1.0));
#484=DIRECTION('',(0.0,1.0,0.0));
#485=CARTESIAN_POINT('',(1.83697019872103E-15,0.0,-30.0));
#486=DIRECTION('',(6.12323399573677E-17,0.0,-1.0));
#487=DIRECTION('',(0.0,1.0,0.0));
#488=DIRECTION('',(0.0,0.0,1.0));
#489=DIRECTION('',(1.0,0.0,0.0));
#490=CARTESIAN_POINT('',(0.0,0.0,28.000000));
#491=AXIS2_PLACEMENT_3D('PCS', #490,#488,#489);
#492=CARTESIAN_POINT('',(0.0,0.0,0.000000));
#493=AXIS2_PLACEMENT_3D('MCS', #492,#488,#489);
#494=CARTESIAN_POINT('',(0.0,0.0,-32.000000));
#495=AXIS2_PLACEMENT_3D('CIP', #494,#488,#489);
ENDSEC;
END-ISO-10303-21;
