ISO-10303-21;
HEADER;
FILE_DESCRIPTION(('STEP AP242'),'1');
FILE_NAME('607410631-000-01-E43.stp','2021-11-24T09:44:46',(' '),(' '),'Spatial InterOp 3D',' ',' ');
FILE_SCHEMA(('AP242_MANAGED_MODEL_BASED_3D_ENGINEERING_MIM_LF  {1 0 10303 442 1 1 4}'));
ENDSEC;
DATA;
#1=MECHANICAL_DESIGN_GEOMETRIC_PRESENTATION_REPRESENTATION(' ',(#12,#13,#14,#15,#16,#17,#18,#19,#20,#21,#22,#23,#24,#25),#8);
#2=PRODUCT_DEFINITION_CONTEXT('',#26,'design');
#3=APPLICATION_PROTOCOL_DEFINITION('INTERNATIONAL STANDARD','ap242_managed_model_based_3d_engineering',2014,#26);
#4=PRODUCT_CATEGORY_RELATIONSHIP('NONE','NONE',#27,#28);
#5=SHAPE_DEFINITION_REPRESENTATION(#29,#30);
#6=SHAPE_DEFINITION_REPRESENTATION(#29,#31);
#7=SHAPE_DEFINITION_REPRESENTATION(#29,#32);
#8= (GEOMETRIC_REPRESENTATION_CONTEXT(3)GLOBAL_UNCERTAINTY_ASSIGNED_CONTEXT((#35))GLOBAL_UNIT_ASSIGNED_CONTEXT((#37,#38,#39))REPRESENTATION_CONTEXT('NONE','WORKSPACE'));
#12=STYLED_ITEM('',(#41),#42);
#13=STYLED_ITEM('',(#43),#44);
#14=STYLED_ITEM('',(#45),#46);
#15=STYLED_ITEM('',(#47),#48);
#16=STYLED_ITEM('',(#49),#50);
#17=STYLED_ITEM('',(#51),#52);
#18=STYLED_ITEM('',(#53),#54);
#19=STYLED_ITEM('',(#55),#56);
#20=STYLED_ITEM('',(#57),#58);
#21=STYLED_ITEM('',(#59),#60);
#22=STYLED_ITEM('',(#61),#62);
#23=STYLED_ITEM('',(#63),#64);
#24=STYLED_ITEM('',(#65),#66);
#25=STYLED_ITEM('',(#67),#68);
#26=APPLICATION_CONTEXT('managed model based 3d engineering');
#27=PRODUCT_CATEGORY('part','NONE');
#28=PRODUCT_RELATED_PRODUCT_CATEGORY('detail',' ',(#69));
#29=PRODUCT_DEFINITION_SHAPE('NONE','NONE',#70);
#30=ADVANCED_BREP_SHAPE_REPRESENTATION('1',(#71,#72),#8);
#31=ADVANCED_BREP_SHAPE_REPRESENTATION('2',(#73,#74),#8);
#32=GEOMETRICALLY_BOUNDED_SURFACE_SHAPE_REPRESENTATION('3',(#75,#76),#8);
#35=UNCERTAINTY_MEASURE_WITH_UNIT(LENGTH_MEASURE(1.0E-06),#37,'','');
#37= (CONVERSION_BASED_UNIT('MILLIMETRE',#79)LENGTH_UNIT()NAMED_UNIT(#82));
#38= (NAMED_UNIT(#84)PLANE_ANGLE_UNIT()SI_UNIT($,.RADIAN.));
#39= (NAMED_UNIT(#84)SOLID_ANGLE_UNIT()SI_UNIT($,.STERADIAN.));
#41=PRESENTATION_STYLE_ASSIGNMENT((#90));
#42=COMPOSITE_CURVE('',(#91),.U.);
#43=PRESENTATION_STYLE_ASSIGNMENT((#92));
#44=COMPOSITE_CURVE('',(#93),.U.);
#45=PRESENTATION_STYLE_ASSIGNMENT((#94));
#46=ADVANCED_FACE('',(#95),#96,.T.);
#47=PRESENTATION_STYLE_ASSIGNMENT((#97));
#48=ADVANCED_FACE('',(#98),#99,.T.);
#49=PRESENTATION_STYLE_ASSIGNMENT((#100));
#50=ADVANCED_FACE('',(#101),#102,.T.);
#51=PRESENTATION_STYLE_ASSIGNMENT((#103));
#52=ADVANCED_FACE('',(#104),#105,.T.);
#53=PRESENTATION_STYLE_ASSIGNMENT((#106));
#54=ADVANCED_FACE('',(#107),#108,.T.);
#55=PRESENTATION_STYLE_ASSIGNMENT((#109));
#56=ADVANCED_FACE('',(#110),#111,.T.);
#57=PRESENTATION_STYLE_ASSIGNMENT((#112));
#58=ADVANCED_FACE('',(#113),#114,.T.);
#59=PRESENTATION_STYLE_ASSIGNMENT((#115));
#60=ADVANCED_FACE('',(#116),#117,.T.);
#61=PRESENTATION_STYLE_ASSIGNMENT((#118));
#62=ADVANCED_FACE('',(#119),#120,.T.);
#63=PRESENTATION_STYLE_ASSIGNMENT((#121));
#64=ADVANCED_FACE('',(#122),#123,.T.);
#65=PRESENTATION_STYLE_ASSIGNMENT((#124));
#66=ADVANCED_FACE('',(#125),#126,.T.);
#67=PRESENTATION_STYLE_ASSIGNMENT((#127));
#68=ADVANCED_FACE('',(#128),#129,.T.);
#69=PRODUCT('1','','PART--DESC',(#130));
#70=PRODUCT_DEFINITION('','NONE',#131,#2);
#71=MANIFOLD_SOLID_BREP('1',#132);
#72=AXIS2_PLACEMENT_3D('',#133,#134,#135);
#73=MANIFOLD_SOLID_BREP('2',#136);
#74=AXIS2_PLACEMENT_3D('',#137,#138,#139);
#75=GEOMETRIC_SET('3',(#42,#44));
#76=AXIS2_PLACEMENT_3D('',#140,#141,#142);
#79=LENGTH_MEASURE_WITH_UNIT(LENGTH_MEASURE(1.0),#143);
#82=DIMENSIONAL_EXPONENTS(1.0,0.0,0.0,0.0,0.0,0.0,0.0);
#84=DIMENSIONAL_EXPONENTS(0.0,0.0,0.0,0.0,0.0,0.0,0.0);
#90=CURVE_STYLE('',#144,POSITIVE_LENGTH_MEASURE(1.0E-06),#145);
#91=COMPOSITE_CURVE_SEGMENT(.CONTINUOUS.,.T.,#146);
#92=CURVE_STYLE('',#147,POSITIVE_LENGTH_MEASURE(1.0E-06),#148);
#93=COMPOSITE_CURVE_SEGMENT(.CONTINUOUS.,.T.,#149);
#94=SURFACE_STYLE_USAGE(.BOTH.,#150);
#95=FACE_OUTER_BOUND('',#151,.T.);
#96=TOROIDAL_SURFACE('',#152,2.0,1.0);
#97=SURFACE_STYLE_USAGE(.BOTH.,#153);
#98=FACE_OUTER_BOUND('',#154,.T.);
#99=CYLINDRICAL_SURFACE('',#155,3.0);
#100=SURFACE_STYLE_USAGE(.BOTH.,#156);
#101=FACE_OUTER_BOUND('',#157,.T.);
#102=PLANE('',#158);
#103=SURFACE_STYLE_USAGE(.BOTH.,#159);
#104=FACE_OUTER_BOUND('',#160,.T.);
#105=CYLINDRICAL_SURFACE('',#161,3.0);
#106=SURFACE_STYLE_USAGE(.BOTH.,#162);
#107=FACE_OUTER_BOUND('',#163,.T.);
#108=TOROIDAL_SURFACE('',#164,2.0,1.0);
#109=SURFACE_STYLE_USAGE(.BOTH.,#165);
#110=FACE_OUTER_BOUND('',#166,.T.);
#111=PLANE('',#167);
#112=SURFACE_STYLE_USAGE(.BOTH.,#168);
#113=FACE_OUTER_BOUND('',#169,.T.);
#114=CYLINDRICAL_SURFACE('',#170,3.0);
#115=SURFACE_STYLE_USAGE(.BOTH.,#171);
#116=FACE_OUTER_BOUND('',#172,.T.);
#117=CONICAL_SURFACE('',#173,2.75,0.785398163397449);
#118=SURFACE_STYLE_USAGE(.BOTH.,#174);
#119=FACE_OUTER_BOUND('',#175,.T.);
#120=PLANE('',#176);
#121=SURFACE_STYLE_USAGE(.BOTH.,#177);
#122=FACE_OUTER_BOUND('',#178,.T.);
#123=CONICAL_SURFACE('',#179,2.75,0.785398163397449);
#124=SURFACE_STYLE_USAGE(.BOTH.,#180);
#125=FACE_OUTER_BOUND('',#181,.T.);
#126=CYLINDRICAL_SURFACE('',#182,3.0);
#127=SURFACE_STYLE_USAGE(.BOTH.,#183);
#128=FACE_OUTER_BOUND('',#184,.T.);
#129=PLANE('',#185);
#130=PRODUCT_CONTEXT('',#26,'mechanical');
#131=PRODUCT_DEFINITION_FORMATION_WITH_SPECIFIED_SOURCE(' ','NONE',#69,.NOT_KNOWN.);
#132=CLOSED_SHELL('',(#46,#48,#50,#52,#54,#56));
#133=CARTESIAN_POINT('',(0.0,0.0,0.0));
#134=DIRECTION('',(0.0,0.0,1.0));
#135=DIRECTION('',(1.0,0.0,0.0));
#136=CLOSED_SHELL('',(#58,#60,#62,#64,#66,#68));
#137=CARTESIAN_POINT('',(0.0,0.0,0.0));
#138=DIRECTION('',(0.0,0.0,1.0));
#139=DIRECTION('',(1.0,0.0,0.0));
#140=CARTESIAN_POINT('',(0.0,0.0,0.0));
#141=DIRECTION('',(0.0,0.0,1.0));
#142=DIRECTION('',(1.0,0.0,0.0));
#143= (NAMED_UNIT(#82)LENGTH_UNIT()SI_UNIT(.MILLI.,.METRE.));
#144=DRAUGHTING_PRE_DEFINED_CURVE_FONT('continuous');
#145=COLOUR_RGB('',0.0,1.0,0.0);
#146=TRIMMED_CURVE('',#187,(PARAMETER_VALUE(0.0)),(PARAMETER_VALUE(3.0)),.T.,.UNSPECIFIED.);
#147=DRAUGHTING_PRE_DEFINED_CURVE_FONT('continuous');
#148=COLOUR_RGB('',0.0,1.0,0.0);
#149=TRIMMED_CURVE('',#188,(PARAMETER_VALUE(0.0)),(PARAMETER_VALUE(3.0)),.T.,.UNSPECIFIED.);
#150=SURFACE_SIDE_STYLE('',(#189));
#151=EDGE_LOOP('',(#190,#191,#192,#193,#194,#195));
#152=AXIS2_PLACEMENT_3D('',#196,#197,#198);
#153=SURFACE_SIDE_STYLE('',(#199));
#154=EDGE_LOOP('',(#200,#201,#202,#203,#204));
#155=AXIS2_PLACEMENT_3D('',#205,#206,#207);
#156=SURFACE_SIDE_STYLE('',(#208));
#157=EDGE_LOOP('',(#209,#210));
#158=AXIS2_PLACEMENT_3D('',#211,#212,#213);
#159=SURFACE_SIDE_STYLE('',(#214));
#160=EDGE_LOOP('',(#215,#216,#217,#218,#219));
#161=AXIS2_PLACEMENT_3D('',#220,#221,#222);
#162=SURFACE_SIDE_STYLE('',(#223));
#163=EDGE_LOOP('',(#224,#225,#226,#227,#228));
#164=AXIS2_PLACEMENT_3D('',#229,#230,#231);
#165=SURFACE_SIDE_STYLE('',(#232));
#166=EDGE_LOOP('',(#233,#234,#235));
#167=AXIS2_PLACEMENT_3D('',#236,#237,#238);
#168=SURFACE_SIDE_STYLE('',(#239));
#169=EDGE_LOOP('',(#240,#241,#242,#243));
#170=AXIS2_PLACEMENT_3D('',#244,#245,#246);
#171=SURFACE_SIDE_STYLE('',(#247));
#172=EDGE_LOOP('',(#248,#249,#250,#251));
#173=AXIS2_PLACEMENT_3D('',#252,#253,#254);
#174=SURFACE_SIDE_STYLE('',(#255));
#175=EDGE_LOOP('',(#256,#257));
#176=AXIS2_PLACEMENT_3D('',#258,#259,#260);
#177=SURFACE_SIDE_STYLE('',(#261));
#178=EDGE_LOOP('',(#262,#263,#264,#265));
#179=AXIS2_PLACEMENT_3D('',#266,#267,#268);
#180=SURFACE_SIDE_STYLE('',(#269));
#181=EDGE_LOOP('',(#270,#271,#272,#273));
#182=AXIS2_PLACEMENT_3D('',#274,#275,#276);
#183=SURFACE_SIDE_STYLE('',(#277));
#184=EDGE_LOOP('',(#278,#279));
#185=AXIS2_PLACEMENT_3D('',#280,#281,#282);
#187=LINE('',#283,#284);
#188=LINE('',#285,#286);
#189=SURFACE_STYLE_FILL_AREA(#287);
#190=ORIENTED_EDGE('',*,*,#288,.F.);
#191=ORIENTED_EDGE('',*,*,#289,.T.);
#192=ORIENTED_EDGE('',*,*,#290,.T.);
#193=ORIENTED_EDGE('',*,*,#291,.F.);
#194=ORIENTED_EDGE('',*,*,#292,.F.);
#195=ORIENTED_EDGE('',*,*,#293,.F.);
#196=CARTESIAN_POINT('',(3.6127080574847E-16,0.0,-5.90000000000001));
#197=DIRECTION('',(6.12323399573677E-17,0.0,-1.0));
#198=DIRECTION('',(-1.0,0.0,-6.12323399573677E-17));
#199=SURFACE_STYLE_FILL_AREA(#294);
#200=ORIENTED_EDGE('',*,*,#295,.F.);
#201=ORIENTED_EDGE('',*,*,#296,.T.);
#202=ORIENTED_EDGE('',*,*,#297,.F.);
#203=ORIENTED_EDGE('',*,*,#298,.F.);
#204=ORIENTED_EDGE('',*,*,#290,.F.);
#205=CARTESIAN_POINT('',(1.80635402874235E-16,0.0,-2.95));
#206=DIRECTION('',(6.12323399573676E-17,0.0,-1.0));
#207=DIRECTION('',(0.0,1.0,0.0));
#208=SURFACE_STYLE_FILL_AREA(#299);
#209=ORIENTED_EDGE('',*,*,#296,.F.);
#210=ORIENTED_EDGE('',*,*,#300,.F.);
#211=CARTESIAN_POINT('',(0.0,1.5,0.0));
#212=DIRECTION('',(-6.12323399573677E-17,0.0,1.0));
#213=DIRECTION('',(0.0,-1.0,0.0));
#214=SURFACE_STYLE_FILL_AREA(#301);
#215=ORIENTED_EDGE('',*,*,#295,.T.);
#216=ORIENTED_EDGE('',*,*,#289,.F.);
#217=ORIENTED_EDGE('',*,*,#302,.F.);
#218=ORIENTED_EDGE('',*,*,#297,.T.);
#219=ORIENTED_EDGE('',*,*,#300,.T.);
#220=CARTESIAN_POINT('',(1.80635402874235E-16,0.0,-2.95));
#221=DIRECTION('',(6.12323399573676E-17,0.0,-1.0));
#222=DIRECTION('',(0.0,1.0,0.0));
#223=SURFACE_STYLE_FILL_AREA(#303);
#224=ORIENTED_EDGE('',*,*,#288,.T.);
#225=ORIENTED_EDGE('',*,*,#304,.F.);
#226=ORIENTED_EDGE('',*,*,#291,.T.);
#227=ORIENTED_EDGE('',*,*,#298,.T.);
#228=ORIENTED_EDGE('',*,*,#302,.T.);
#229=CARTESIAN_POINT('',(3.6127080574847E-16,0.0,-5.90000000000001));
#230=DIRECTION('',(6.12323399573677E-17,0.0,-1.0));
#231=DIRECTION('',(-1.0,0.0,-6.12323399573677E-17));
#232=SURFACE_STYLE_FILL_AREA(#305);
#233=ORIENTED_EDGE('',*,*,#292,.T.);
#234=ORIENTED_EDGE('',*,*,#304,.T.);
#235=ORIENTED_EDGE('',*,*,#293,.T.);
#236=CARTESIAN_POINT('',(4.22503145705838E-16,1.0,-6.90000000000001));
#237=DIRECTION('',(6.12323399573677E-17,0.0,-1.0));
#238=DIRECTION('',(0.0,1.0,0.0));
#239=SURFACE_STYLE_FILL_AREA(#306);
#240=ORIENTED_EDGE('',*,*,#307,.F.);
#241=ORIENTED_EDGE('',*,*,#308,.T.);
#242=ORIENTED_EDGE('',*,*,#309,.F.);
#243=ORIENTED_EDGE('',*,*,#310,.F.);
#244=CARTESIAN_POINT('',(-2.83505734002612E-15,0.0,46.3));
#245=DIRECTION('',(6.12323399573676E-17,0.0,-1.0));
#246=DIRECTION('',(0.0,1.0,0.0));
#247=SURFACE_STYLE_FILL_AREA(#311);
#248=ORIENTED_EDGE('',*,*,#312,.F.);
#249=ORIENTED_EDGE('',*,*,#313,.T.);
#250=ORIENTED_EDGE('',*,*,#314,.F.);
#251=ORIENTED_EDGE('',*,*,#308,.F.);
#252=CARTESIAN_POINT('',(-5.68542276504159E-15,0.0,92.85));
#253=DIRECTION('',(6.12323399573677E-17,-0.0,-1.0));
#254=DIRECTION('',(0.0,1.0,0.0));
#255=SURFACE_STYLE_FILL_AREA(#315);
#256=ORIENTED_EDGE('',*,*,#313,.F.);
#257=ORIENTED_EDGE('',*,*,#316,.F.);
#258=CARTESIAN_POINT('',(-5.70073085003093E-15,1.25,93.1));
#259=DIRECTION('',(-6.12323399573677E-17,0.0,1.0));
#260=DIRECTION('',(0.0,-1.0,0.0));
#261=SURFACE_STYLE_FILL_AREA(#317);
#262=ORIENTED_EDGE('',*,*,#312,.T.);
#263=ORIENTED_EDGE('',*,*,#318,.F.);
#264=ORIENTED_EDGE('',*,*,#314,.T.);
#265=ORIENTED_EDGE('',*,*,#316,.T.);
#266=CARTESIAN_POINT('',(-5.68542276504159E-15,0.0,92.85));
#267=DIRECTION('',(6.12323399573677E-17,-0.0,-1.0));
#268=DIRECTION('',(0.0,1.0,0.0));
#269=SURFACE_STYLE_FILL_AREA(#319);
#270=ORIENTED_EDGE('',*,*,#307,.T.);
#271=ORIENTED_EDGE('',*,*,#320,.F.);
#272=ORIENTED_EDGE('',*,*,#309,.T.);
#273=ORIENTED_EDGE('',*,*,#318,.T.);
#274=CARTESIAN_POINT('',(-2.83505734002612E-15,0.0,46.3));
#275=DIRECTION('',(6.12323399573676E-17,0.0,-1.0));
#276=DIRECTION('',(0.0,1.0,0.0));
#277=SURFACE_STYLE_FILL_AREA(#321);
#278=ORIENTED_EDGE('',*,*,#310,.T.);
#279=ORIENTED_EDGE('',*,*,#320,.T.);
#280=CARTESIAN_POINT('',(0.0,1.5,0.0));
#281=DIRECTION('',(6.12323399573677E-17,0.0,-1.0));
#282=DIRECTION('',(0.0,1.0,0.0));
#283=CARTESIAN_POINT('',(0.0,3.0,0.0));
#284=VECTOR('',#322,1.0);
#285=CARTESIAN_POINT('',(0.0,-3.0,0.0));
#286=VECTOR('',#323,1.0);
#287=FILL_AREA_STYLE('',(#324));
#288=EDGE_CURVE('',#325,#326,#327,.T.);
#289=EDGE_CURVE('',#325,#328,#329,.T.);
#290=EDGE_CURVE('',#328,#330,#331,.T.);
#291=EDGE_CURVE('',#332,#330,#333,.T.);
#292=EDGE_CURVE('',#334,#332,#335,.T.);
#293=EDGE_CURVE('',#326,#334,#336,.T.);
#294=FILL_AREA_STYLE('',(#337));
#295=EDGE_CURVE('',#338,#328,#339,.T.);
#296=EDGE_CURVE('',#338,#340,#341,.T.);
#297=EDGE_CURVE('',#342,#340,#343,.T.);
#298=EDGE_CURVE('',#330,#342,#344,.T.);
#299=FILL_AREA_STYLE('',(#345));
#300=EDGE_CURVE('',#340,#338,#346,.T.);
#301=FILL_AREA_STYLE('',(#347));
#302=EDGE_CURVE('',#342,#325,#348,.T.);
#303=FILL_AREA_STYLE('',(#349));
#304=EDGE_CURVE('',#332,#326,#350,.T.);
#305=FILL_AREA_STYLE('',(#351));
#306=FILL_AREA_STYLE('',(#352));
#307=EDGE_CURVE('',#353,#354,#355,.T.);
#308=EDGE_CURVE('',#353,#356,#357,.T.);
#309=EDGE_CURVE('',#358,#356,#359,.T.);
#310=EDGE_CURVE('',#354,#358,#360,.T.);
#311=FILL_AREA_STYLE('',(#361));
#312=EDGE_CURVE('',#362,#353,#363,.T.);
#313=EDGE_CURVE('',#362,#364,#365,.T.);
#314=EDGE_CURVE('',#356,#364,#366,.T.);
#315=FILL_AREA_STYLE('',(#367));
#316=EDGE_CURVE('',#364,#362,#368,.T.);
#317=FILL_AREA_STYLE('',(#369));
#318=EDGE_CURVE('',#356,#353,#370,.T.);
#319=FILL_AREA_STYLE('',(#371));
#320=EDGE_CURVE('',#358,#354,#372,.T.);
#321=FILL_AREA_STYLE('',(#373));
#322=DIRECTION('',(0.0,-1.0,0.0));
#323=DIRECTION('',(0.0,1.0,0.0));
#324=FILL_AREA_STYLE_COLOUR('',#374);
#325=VERTEX_POINT('',#375);
#326=VERTEX_POINT('',#376);
#327=CIRCLE('',#377,1.0);
#328=VERTEX_POINT('',#378);
#329=CIRCLE('',#379,3.0);
#330=VERTEX_POINT('',#380);
#331=CIRCLE('',#381,3.0);
#332=VERTEX_POINT('',#382);
#333=CIRCLE('',#383,1.0);
#334=VERTEX_POINT('',#384);
#335=CIRCLE('',#385,2.0);
#336=CIRCLE('',#386,2.0);
#337=FILL_AREA_STYLE_COLOUR('',#387);
#338=VERTEX_POINT('',#388);
#339=LINE('',#389,#390);
#340=VERTEX_POINT('',#391);
#341=CIRCLE('',#392,3.0);
#342=VERTEX_POINT('',#393);
#343=LINE('',#394,#395);
#344=CIRCLE('',#396,3.0);
#345=FILL_AREA_STYLE_COLOUR('',#397);
#346=CIRCLE('',#398,3.0);
#347=FILL_AREA_STYLE_COLOUR('',#399);
#348=CIRCLE('',#400,3.0);
#349=FILL_AREA_STYLE_COLOUR('',#401);
#350=CIRCLE('',#402,2.0);
#351=FILL_AREA_STYLE_COLOUR('',#403);
#352=FILL_AREA_STYLE_COLOUR('',#404);
#353=VERTEX_POINT('',#405);
#354=VERTEX_POINT('',#406);
#355=LINE('',#407,#408);
#356=VERTEX_POINT('',#409);
#357=CIRCLE('',#410,3.0);
#358=VERTEX_POINT('',#411);
#359=LINE('',#412,#413);
#360=CIRCLE('',#414,3.0);
#361=FILL_AREA_STYLE_COLOUR('',#415);
#362=VERTEX_POINT('',#416);
#363=LINE('',#417,#418);
#364=VERTEX_POINT('',#419);
#365=CIRCLE('',#420,2.5);
#366=LINE('',#421,#422);
#367=FILL_AREA_STYLE_COLOUR('',#423);
#368=CIRCLE('',#424,2.5);
#369=FILL_AREA_STYLE_COLOUR('',#425);
#370=CIRCLE('',#426,3.0);
#371=FILL_AREA_STYLE_COLOUR('',#427);
#372=CIRCLE('',#428,3.0);
#373=FILL_AREA_STYLE_COLOUR('',#429);
#374=COLOUR_RGB('',0.800000011920929,0.800000011920929,0.800000011920929);
#375=CARTESIAN_POINT('',(-3.0,-3.67394039744206E-16,-5.90000000000001));
#376=CARTESIAN_POINT('',(-2.0,-2.44929359829471E-16,-6.90000000000001));
#377=AXIS2_PLACEMENT_3D('',#430,#431,#432);
#378=CARTESIAN_POINT('',(3.6127080574847E-16,3.0,-5.90000000000001));
#379=AXIS2_PLACEMENT_3D('',#433,#434,#435);
#380=CARTESIAN_POINT('',(3.0,3.67394039744206E-16,-5.90000000000001));
#381=AXIS2_PLACEMENT_3D('',#436,#437,#438);
#382=CARTESIAN_POINT('',(2.0,2.44929359829471E-16,-6.90000000000001));
#383=AXIS2_PLACEMENT_3D('',#439,#440,#441);
#384=CARTESIAN_POINT('',(4.22503145705838E-16,2.0,-6.90000000000001));
#385=AXIS2_PLACEMENT_3D('',#442,#443,#444);
#386=AXIS2_PLACEMENT_3D('',#445,#446,#447);
#387=COLOUR_RGB('',0.800000011920929,0.800000011920929,0.800000011920929);
#388=CARTESIAN_POINT('',(0.0,3.0,0.0));
#389=CARTESIAN_POINT('',(-1.86758636869971E-16,3.0,-2.95));
#390=VECTOR('',#448,1.0);
#391=CARTESIAN_POINT('',(3.67394039744206E-16,-3.0,2.24963967399279E-32));
#392=AXIS2_PLACEMENT_3D('',#449,#450,#451);
#393=CARTESIAN_POINT('',(7.28664845492676E-16,-3.0,-5.90000000000001));
#394=CARTESIAN_POINT('',(5.48029442618441E-16,-3.0,-2.95));
#395=VECTOR('',#452,1.0);
#396=AXIS2_PLACEMENT_3D('',#453,#454,#455);
#397=COLOUR_RGB('',0.800000011920929,0.800000011920929,0.800000011920929);
#398=AXIS2_PLACEMENT_3D('',#456,#457,#458);
#399=COLOUR_RGB('',0.800000011920929,0.800000011920929,0.800000011920929);
#400=AXIS2_PLACEMENT_3D('',#459,#460,#461);
#401=COLOUR_RGB('',0.800000011920929,0.800000011920929,0.800000011920929);
#402=AXIS2_PLACEMENT_3D('',#462,#463,#464);
#403=COLOUR_RGB('',0.800000011920929,0.800000011920929,0.800000011920929);
#404=COLOUR_RGB('',0.498039215803146,0.498039215803146,0.498039215803146);
#405=CARTESIAN_POINT('',(-5.67011468005224E-15,3.0,92.6));
#406=CARTESIAN_POINT('',(0.0,3.0,0.0));
#407=CARTESIAN_POINT('',(-3.20245137977033E-15,3.0,46.3));
#408=VECTOR('',#465,1.0);
#409=CARTESIAN_POINT('',(-5.30272064030804E-15,-3.0,92.6));
#410=AXIS2_PLACEMENT_3D('',#466,#467,#468);
#411=CARTESIAN_POINT('',(3.67394039744206E-16,-3.0,2.24963967399279E-32));
#412=CARTESIAN_POINT('',(-2.46766330028192E-15,-3.0,46.3));
#413=VECTOR('',#469,1.0);
#414=AXIS2_PLACEMENT_3D('',#470,#471,#472);
#415=COLOUR_RGB('',0.498039215803146,0.498039215803146,0.498039215803146);
#416=CARTESIAN_POINT('',(-5.70073085003093E-15,2.5,93.1));
#417=CARTESIAN_POINT('',(-6.02220063480711E-15,2.75,92.85));
#418=VECTOR('',#473,1.0);
#419=CARTESIAN_POINT('',(-5.39456915024409E-15,-2.5,93.1));
#420=AXIS2_PLACEMENT_3D('',#474,#475,#476);
#421=CARTESIAN_POINT('',(-5.34864489527606E-15,-2.75,92.85));
#422=VECTOR('',#477,1.0);
#423=COLOUR_RGB('',0.498039215803146,0.498039215803146,0.498039215803146);
#424=AXIS2_PLACEMENT_3D('',#478,#479,#480);
#425=COLOUR_RGB('',0.498039215803146,0.498039215803146,0.498039215803146);
#426=AXIS2_PLACEMENT_3D('',#481,#482,#483);
#427=COLOUR_RGB('',0.498039215803146,0.498039215803146,0.498039215803146);
#428=AXIS2_PLACEMENT_3D('',#484,#485,#486);
#429=COLOUR_RGB('',0.498039215803146,0.498039215803146,0.498039215803146);
#430=CARTESIAN_POINT('',(-2.0,-2.44929359829471E-16,-5.90000000000001));
#431=DIRECTION('',(1.22464679914735E-16,-1.0,7.49879891330929E-33));
#432=DIRECTION('',(-1.0,-1.22464679914735E-16,-6.12323399573677E-17));
#433=CARTESIAN_POINT('',(3.6127080574847E-16,0.0,-5.90000000000001));
#434=DIRECTION('',(6.12323399573676E-17,0.0,-1.0));
#435=DIRECTION('',(0.0,1.0,0.0));
#436=CARTESIAN_POINT('',(3.6127080574847E-16,0.0,-5.90000000000001));
#437=DIRECTION('',(6.12323399573676E-17,0.0,-1.0));
#438=DIRECTION('',(0.0,1.0,0.0));
#439=CARTESIAN_POINT('',(2.0,2.44929359829471E-16,-5.90000000000001));
#440=DIRECTION('',(1.22464679914735E-16,-1.0,7.49879891330929E-33));
#441=DIRECTION('',(1.0,1.22464679914735E-16,6.12323399573677E-17));
#442=CARTESIAN_POINT('',(4.22503145705838E-16,0.0,-6.90000000000001));
#443=DIRECTION('',(6.12323399573677E-17,0.0,-1.0));
#444=DIRECTION('',(0.0,1.0,0.0));
#445=CARTESIAN_POINT('',(4.22503145705838E-16,0.0,-6.90000000000001));
#446=DIRECTION('',(6.12323399573677E-17,0.0,-1.0));
#447=DIRECTION('',(0.0,1.0,0.0));
#448=DIRECTION('',(6.12323399573676E-17,0.0,-1.0));
#449=CARTESIAN_POINT('',(0.0,0.0,0.0));
#450=DIRECTION('',(6.12323399573676E-17,0.0,-1.0));
#451=DIRECTION('',(0.0,1.0,0.0));
#452=DIRECTION('',(-6.12323399573676E-17,-0.0,1.0));
#453=CARTESIAN_POINT('',(3.6127080574847E-16,0.0,-5.90000000000001));
#454=DIRECTION('',(6.12323399573676E-17,0.0,-1.0));
#455=DIRECTION('',(0.0,1.0,0.0));
#456=CARTESIAN_POINT('',(0.0,0.0,0.0));
#457=DIRECTION('',(6.12323399573676E-17,0.0,-1.0));
#458=DIRECTION('',(0.0,1.0,0.0));
#459=CARTESIAN_POINT('',(3.6127080574847E-16,0.0,-5.90000000000001));
#460=DIRECTION('',(6.12323399573676E-17,0.0,-1.0));
#461=DIRECTION('',(0.0,1.0,0.0));
#462=CARTESIAN_POINT('',(4.22503145705838E-16,0.0,-6.90000000000001));
#463=DIRECTION('',(6.12323399573677E-17,0.0,-1.0));
#464=DIRECTION('',(0.0,1.0,0.0));
#465=DIRECTION('',(6.12323399573676E-17,0.0,-1.0));
#466=CARTESIAN_POINT('',(-5.67011468005224E-15,0.0,92.6));
#467=DIRECTION('',(6.12323399573676E-17,0.0,-1.0));
#468=DIRECTION('',(0.0,1.0,0.0));
#469=DIRECTION('',(-6.12323399573676E-17,-0.0,1.0));
#470=CARTESIAN_POINT('',(0.0,0.0,0.0));
#471=DIRECTION('',(6.12323399573676E-17,0.0,-1.0));
#472=DIRECTION('',(0.0,1.0,0.0));
#473=DIRECTION('',(-4.32978028117748E-17,0.707106781186547,-0.707106781186548));
#474=CARTESIAN_POINT('',(-5.70073085003093E-15,0.0,93.1));
#475=DIRECTION('',(6.12323399573677E-17,0.0,-1.0));
#476=DIRECTION('',(0.0,1.0,0.0));
#477=DIRECTION('',(-1.29893408435324E-16,0.707106781186547,0.707106781186548));
#478=CARTESIAN_POINT('',(-5.70073085003093E-15,0.0,93.1));
#479=DIRECTION('',(6.12323399573677E-17,0.0,-1.0));
#480=DIRECTION('',(0.0,1.0,0.0));
#481=CARTESIAN_POINT('',(-5.67011468005224E-15,0.0,92.6));
#482=DIRECTION('',(6.12323399573676E-17,0.0,-1.0));
#483=DIRECTION('',(0.0,1.0,0.0));
#484=CARTESIAN_POINT('',(0.0,0.0,0.0));
#485=DIRECTION('',(6.12323399573676E-17,0.0,-1.0));
#486=DIRECTION('',(0.0,1.0,0.0));
#487=DIRECTION('',(0.0,0.0,1.0));
#488=DIRECTION('',(1.0,0.0,0.0));
#489=CARTESIAN_POINT('',(0.0,0.0,93.100000));
#490=AXIS2_PLACEMENT_3D('PCS', #489,#487,#488);
#491=CARTESIAN_POINT('',(0.0,0.0,0.000000));
#492=AXIS2_PLACEMENT_3D('MCS', #491,#487,#488);
#493=CARTESIAN_POINT('',(0.0,0.0,-6.900000));
#494=AXIS2_PLACEMENT_3D('CIP', #493,#487,#488);
ENDSEC;
END-ISO-10303-21;
