ISO-10303-21;
HEADER;
FILE_DESCRIPTION(('STEP AP242'),'1');
FILE_NAME('607410345-000-01-E43.stp','2021-11-25T14:18:10',(' '),(' '),'Spatial InterOp 3D',' ',' ');
FILE_SCHEMA(('AP242_MANAGED_MODEL_BASED_3D_ENGINEERING_MIM_LF  {1 0 10303 442 1 1 4}'));
ENDSEC;
DATA;
#1=MECHANICAL_DESIGN_GEOMETRIC_PRESENTATION_REPRESENTATION(' ',(#12,#13,#14,#15,#16,#17,#18,#19,#20,#21,#22,#23,#24,#25,#26,#27,#28,#29,#30),#8);
#2=PRODUCT_DEFINITION_CONTEXT('',#31,'design');
#3=APPLICATION_PROTOCOL_DEFINITION('INTERNATIONAL STANDARD','ap242_managed_model_based_3d_engineering',2014,#31);
#4=PRODUCT_CATEGORY_RELATIONSHIP('NONE','NONE',#32,#33);
#5=SHAPE_DEFINITION_REPRESENTATION(#34,#35);
#6=SHAPE_DEFINITION_REPRESENTATION(#34,#36);
#7=SHAPE_DEFINITION_REPRESENTATION(#34,#37);
#8= (GEOMETRIC_REPRESENTATION_CONTEXT(3)GLOBAL_UNCERTAINTY_ASSIGNED_CONTEXT((#40))GLOBAL_UNIT_ASSIGNED_CONTEXT((#42,#43,#44))REPRESENTATION_CONTEXT('NONE','WORKSPACE'));
#12=STYLED_ITEM('',(#46),#47);
#13=STYLED_ITEM('',(#48),#49);
#14=STYLED_ITEM('',(#50),#51);
#15=STYLED_ITEM('',(#52),#53);
#16=STYLED_ITEM('',(#54),#55);
#17=STYLED_ITEM('',(#56),#57);
#18=STYLED_ITEM('',(#58),#59);
#19=STYLED_ITEM('',(#60),#61);
#20=STYLED_ITEM('',(#62),#63);
#21=STYLED_ITEM('',(#64),#65);
#22=STYLED_ITEM('',(#66),#67);
#23=STYLED_ITEM('',(#68),#69);
#24=STYLED_ITEM('',(#70),#71);
#25=STYLED_ITEM('',(#72),#73);
#26=STYLED_ITEM('',(#74),#75);
#27=STYLED_ITEM('',(#76),#77);
#28=STYLED_ITEM('',(#78),#79);
#29=STYLED_ITEM('',(#80),#81);
#30=STYLED_ITEM('',(#82),#83);
#31=APPLICATION_CONTEXT('managed model based 3d engineering');
#32=PRODUCT_CATEGORY('part','NONE');
#33=PRODUCT_RELATED_PRODUCT_CATEGORY('detail',' ',(#84));
#34=PRODUCT_DEFINITION_SHAPE('NONE','NONE',#85);
#35=ADVANCED_BREP_SHAPE_REPRESENTATION('1',(#86,#87),#8);
#36=ADVANCED_BREP_SHAPE_REPRESENTATION('2',(#88,#89),#8);
#37=GEOMETRICALLY_BOUNDED_SURFACE_SHAPE_REPRESENTATION('3',(#90,#91),#8);
#40=UNCERTAINTY_MEASURE_WITH_UNIT(LENGTH_MEASURE(1.0E-06),#42,'','');
#42= (CONVERSION_BASED_UNIT('MILLIMETRE',#94)LENGTH_UNIT()NAMED_UNIT(#97));
#43= (NAMED_UNIT(#99)PLANE_ANGLE_UNIT()SI_UNIT($,.RADIAN.));
#44= (NAMED_UNIT(#99)SOLID_ANGLE_UNIT()SI_UNIT($,.STERADIAN.));
#46=PRESENTATION_STYLE_ASSIGNMENT((#105));
#47=COMPOSITE_CURVE('',(#106),.U.);
#48=PRESENTATION_STYLE_ASSIGNMENT((#107));
#49=COMPOSITE_CURVE('',(#108),.U.);
#50=PRESENTATION_STYLE_ASSIGNMENT((#109));
#51=ADVANCED_FACE('',(#110),#111,.T.);
#52=PRESENTATION_STYLE_ASSIGNMENT((#112));
#53=ADVANCED_FACE('',(#113),#114,.T.);
#54=PRESENTATION_STYLE_ASSIGNMENT((#115));
#55=ADVANCED_FACE('',(#116),#117,.T.);
#56=PRESENTATION_STYLE_ASSIGNMENT((#118));
#57=ADVANCED_FACE('',(#119),#120,.T.);
#58=PRESENTATION_STYLE_ASSIGNMENT((#121));
#59=ADVANCED_FACE('',(#122),#123,.T.);
#60=PRESENTATION_STYLE_ASSIGNMENT((#124));
#61=ADVANCED_FACE('',(#125),#126,.T.);
#62=PRESENTATION_STYLE_ASSIGNMENT((#127));
#63=ADVANCED_FACE('',(#128),#129,.T.);
#64=PRESENTATION_STYLE_ASSIGNMENT((#130));
#65=ADVANCED_FACE('',(#131),#132,.F.);
#66=PRESENTATION_STYLE_ASSIGNMENT((#133));
#67=ADVANCED_FACE('',(#134),#135,.T.);
#68=PRESENTATION_STYLE_ASSIGNMENT((#136));
#69=ADVANCED_FACE('',(#137),#138,.T.);
#70=PRESENTATION_STYLE_ASSIGNMENT((#139));
#71=ADVANCED_FACE('',(#140),#141,.T.);
#72=PRESENTATION_STYLE_ASSIGNMENT((#142));
#73=ADVANCED_FACE('',(#143),#144,.T.);
#74=PRESENTATION_STYLE_ASSIGNMENT((#145));
#75=ADVANCED_FACE('',(#146),#147,.T.);
#76=PRESENTATION_STYLE_ASSIGNMENT((#148));
#77=ADVANCED_FACE('',(#149),#150,.F.);
#78=PRESENTATION_STYLE_ASSIGNMENT((#151));
#79=ADVANCED_FACE('',(#152),#153,.T.);
#80=PRESENTATION_STYLE_ASSIGNMENT((#154));
#81=ADVANCED_FACE('',(#155),#156,.T.);
#82=PRESENTATION_STYLE_ASSIGNMENT((#157));
#83=ADVANCED_FACE('',(#158),#159,.T.);
#84=PRODUCT('1','','PART--DESC',(#160));
#85=PRODUCT_DEFINITION('','NONE',#161,#2);
#86=MANIFOLD_SOLID_BREP('1',#162);
#87=AXIS2_PLACEMENT_3D('',#163,#164,#165);
#88=MANIFOLD_SOLID_BREP('2',#166);
#89=AXIS2_PLACEMENT_3D('',#167,#168,#169);
#90=GEOMETRIC_SET('3',(#47,#49));
#91=AXIS2_PLACEMENT_3D('',#170,#171,#172);
#94=LENGTH_MEASURE_WITH_UNIT(LENGTH_MEASURE(1.0),#173);
#97=DIMENSIONAL_EXPONENTS(1.0,0.0,0.0,0.0,0.0,0.0,0.0);
#99=DIMENSIONAL_EXPONENTS(0.0,0.0,0.0,0.0,0.0,0.0,0.0);
#105=CURVE_STYLE('',#174,POSITIVE_LENGTH_MEASURE(1.0E-06),#175);
#106=COMPOSITE_CURVE_SEGMENT(.CONTINUOUS.,.T.,#176);
#107=CURVE_STYLE('',#177,POSITIVE_LENGTH_MEASURE(1.0E-06),#178);
#108=COMPOSITE_CURVE_SEGMENT(.CONTINUOUS.,.T.,#179);
#109=SURFACE_STYLE_USAGE(.BOTH.,#180);
#110=FACE_OUTER_BOUND('',#181,.T.);
#111=SPHERICAL_SURFACE('',#182,2.0);
#112=SURFACE_STYLE_USAGE(.BOTH.,#183);
#113=FACE_OUTER_BOUND('',#184,.T.);
#114=CYLINDRICAL_SURFACE('',#185,2.0);
#115=SURFACE_STYLE_USAGE(.BOTH.,#186);
#116=FACE_OUTER_BOUND('',#187,.T.);
#117=PLANE('',#188);
#118=SURFACE_STYLE_USAGE(.BOTH.,#189);
#119=FACE_OUTER_BOUND('',#190,.T.);
#120=CYLINDRICAL_SURFACE('',#191,2.0);
#121=SURFACE_STYLE_USAGE(.BOTH.,#192);
#122=FACE_OUTER_BOUND('',#193,.T.);
#123=SPHERICAL_SURFACE('',#194,2.0);
#124=SURFACE_STYLE_USAGE(.BOTH.,#195);
#125=FACE_OUTER_BOUND('',#196,.T.);
#126=CYLINDRICAL_SURFACE('',#197,1.97);
#127=SURFACE_STYLE_USAGE(.BOTH.,#198);
#128=FACE_OUTER_BOUND('',#199,.T.);
#129=CONICAL_SURFACE('',#200,2.10962988465214,0.00872664625996925);
#130=SURFACE_STYLE_USAGE(.BOTH.,#201);
#131=FACE_OUTER_BOUND('',#202,.T.);
#132=TOROIDAL_SURFACE('',#203,8.24925976930428,6.0);
#133=SURFACE_STYLE_USAGE(.BOTH.,#204);
#134=FACE_OUTER_BOUND('',#205,.T.);
#135=CYLINDRICAL_SURFACE('',#206,3.0);
#136=SURFACE_STYLE_USAGE(.BOTH.,#207);
#137=FACE_OUTER_BOUND('',#208,.T.);
#138=CONICAL_SURFACE('',#209,2.75,0.785398163397448);
#139=SURFACE_STYLE_USAGE(.BOTH.,#210);
#140=FACE_OUTER_BOUND('',#211,.T.);
#141=PLANE('',#212);
#142=SURFACE_STYLE_USAGE(.BOTH.,#213);
#143=FACE_OUTER_BOUND('',#214,.T.);
#144=CONICAL_SURFACE('',#215,2.75,0.785398163397448);
#145=SURFACE_STYLE_USAGE(.BOTH.,#216);
#146=FACE_OUTER_BOUND('',#217,.T.);
#147=CYLINDRICAL_SURFACE('',#218,3.0);
#148=SURFACE_STYLE_USAGE(.BOTH.,#219);
#149=FACE_OUTER_BOUND('',#220,.T.);
#150=TOROIDAL_SURFACE('',#221,8.24925976930428,6.0);
#151=SURFACE_STYLE_USAGE(.BOTH.,#222);
#152=FACE_OUTER_BOUND('',#223,.T.);
#153=CONICAL_SURFACE('',#224,2.10962988465214,0.00872664625996925);
#154=SURFACE_STYLE_USAGE(.BOTH.,#225);
#155=FACE_OUTER_BOUND('',#226,.T.);
#156=CYLINDRICAL_SURFACE('',#227,1.97);
#157=SURFACE_STYLE_USAGE(.BOTH.,#228);
#158=FACE_OUTER_BOUND('',#229,.T.);
#159=PLANE('',#230);
#160=PRODUCT_CONTEXT('',#31,'mechanical');
#161=PRODUCT_DEFINITION_FORMATION_WITH_SPECIFIED_SOURCE(' ','NONE',#84,.NOT_KNOWN.);
#162=CLOSED_SHELL('',(#51,#53,#55,#57,#59));
#163=CARTESIAN_POINT('',(0.0,0.0,0.0));
#164=DIRECTION('',(0.0,0.0,1.0));
#165=DIRECTION('',(1.0,0.0,0.0));
#166=CLOSED_SHELL('',(#61,#63,#65,#67,#69,#71,#73,#75,#77,#79,#81,#83));
#167=CARTESIAN_POINT('',(0.0,0.0,0.0));
#168=DIRECTION('',(0.0,0.0,1.0));
#169=DIRECTION('',(1.0,0.0,0.0));
#170=CARTESIAN_POINT('',(0.0,0.0,0.0));
#171=DIRECTION('',(0.0,0.0,1.0));
#172=DIRECTION('',(1.0,0.0,0.0));
#173= (NAMED_UNIT(#97)LENGTH_UNIT()SI_UNIT(.MILLI.,.METRE.));
#174=DRAUGHTING_PRE_DEFINED_CURVE_FONT('continuous');
#175=COLOUR_RGB('',0.0,1.0,0.0);
#176=TRIMMED_CURVE('',#232,(PARAMETER_VALUE(0.0)),(PARAMETER_VALUE(3.0)),.T.,.UNSPECIFIED.);
#177=DRAUGHTING_PRE_DEFINED_CURVE_FONT('continuous');
#178=COLOUR_RGB('',0.0,1.0,0.0);
#179=TRIMMED_CURVE('',#233,(PARAMETER_VALUE(0.0)),(PARAMETER_VALUE(3.0)),.T.,.UNSPECIFIED.);
#180=SURFACE_SIDE_STYLE('',(#234));
#181=EDGE_LOOP('',(#235,#236,#237));
#182=AXIS2_PLACEMENT_3D('',#238,#239,#240);
#183=SURFACE_SIDE_STYLE('',(#241));
#184=EDGE_LOOP('',(#242,#243,#244,#245,#246));
#185=AXIS2_PLACEMENT_3D('',#247,#248,#249);
#186=SURFACE_SIDE_STYLE('',(#250));
#187=EDGE_LOOP('',(#251,#252));
#188=AXIS2_PLACEMENT_3D('',#253,#254,#255);
#189=SURFACE_SIDE_STYLE('',(#256));
#190=EDGE_LOOP('',(#257,#258,#259,#260,#261));
#191=AXIS2_PLACEMENT_3D('',#262,#263,#264);
#192=SURFACE_SIDE_STYLE('',(#265));
#193=EDGE_LOOP('',(#266,#267,#268));
#194=AXIS2_PLACEMENT_3D('',#269,#270,#271);
#195=SURFACE_SIDE_STYLE('',(#272));
#196=EDGE_LOOP('',(#273,#274,#275,#276));
#197=AXIS2_PLACEMENT_3D('',#277,#278,#279);
#198=SURFACE_SIDE_STYLE('',(#280));
#199=EDGE_LOOP('',(#281,#282,#283,#284,#285));
#200=AXIS2_PLACEMENT_3D('',#286,#287,#288);
#201=SURFACE_SIDE_STYLE('',(#289));
#202=EDGE_LOOP('',(#290,#291,#292,#293,#294,#295));
#203=AXIS2_PLACEMENT_3D('',#296,#297,#298);
#204=SURFACE_SIDE_STYLE('',(#299));
#205=EDGE_LOOP('',(#300,#301,#302,#303,#304));
#206=AXIS2_PLACEMENT_3D('',#305,#306,#307);
#207=SURFACE_SIDE_STYLE('',(#308));
#208=EDGE_LOOP('',(#309,#310,#311,#312));
#209=AXIS2_PLACEMENT_3D('',#313,#314,#315);
#210=SURFACE_SIDE_STYLE('',(#316));
#211=EDGE_LOOP('',(#317,#318));
#212=AXIS2_PLACEMENT_3D('',#319,#320,#321);
#213=SURFACE_SIDE_STYLE('',(#322));
#214=EDGE_LOOP('',(#323,#324,#325,#326));
#215=AXIS2_PLACEMENT_3D('',#327,#328,#329);
#216=SURFACE_SIDE_STYLE('',(#330));
#217=EDGE_LOOP('',(#331,#332,#333,#334,#335));
#218=AXIS2_PLACEMENT_3D('',#336,#337,#338);
#219=SURFACE_SIDE_STYLE('',(#339));
#220=EDGE_LOOP('',(#340,#341,#342,#343,#344,#345));
#221=AXIS2_PLACEMENT_3D('',#346,#347,#348);
#222=SURFACE_SIDE_STYLE('',(#349));
#223=EDGE_LOOP('',(#350,#351,#352,#353,#354));
#224=AXIS2_PLACEMENT_3D('',#355,#356,#357);
#225=SURFACE_SIDE_STYLE('',(#358));
#226=EDGE_LOOP('',(#359,#360,#361,#362));
#227=AXIS2_PLACEMENT_3D('',#363,#364,#365);
#228=SURFACE_SIDE_STYLE('',(#366));
#229=EDGE_LOOP('',(#367,#368));
#230=AXIS2_PLACEMENT_3D('',#369,#370,#371);
#232=LINE('',#372,#373);
#233=LINE('',#374,#375);
#234=SURFACE_STYLE_FILL_AREA(#376);
#235=ORIENTED_EDGE('',*,*,#377,.F.);
#236=ORIENTED_EDGE('',*,*,#378,.T.);
#237=ORIENTED_EDGE('',*,*,#379,.T.);
#238=CARTESIAN_POINT('',(2.50477469039223E-15,0.0,-40.9060749946214));
#239=DIRECTION('',(1.0,0.0,6.12323399573677E-17));
#240=DIRECTION('',(6.12323399573677E-17,0.0,-1.0));
#241=SURFACE_STYLE_FILL_AREA(#380);
#242=ORIENTED_EDGE('',*,*,#381,.F.);
#243=ORIENTED_EDGE('',*,*,#382,.T.);
#244=ORIENTED_EDGE('',*,*,#383,.F.);
#245=ORIENTED_EDGE('',*,*,#384,.F.);
#246=ORIENTED_EDGE('',*,*,#379,.F.);
#247=CARTESIAN_POINT('',(2.42517264844765E-15,0.0,-39.6060749946214));
#248=DIRECTION('',(6.12323399573677E-17,0.0,-1.0));
#249=DIRECTION('',(0.0,1.0,0.0));
#250=SURFACE_STYLE_FILL_AREA(#385);
#251=ORIENTED_EDGE('',*,*,#382,.F.);
#252=ORIENTED_EDGE('',*,*,#386,.F.);
#253=CARTESIAN_POINT('',(2.34557060650308E-15,1.0,-38.3060749946214));
#254=DIRECTION('',(-6.12323399573677E-17,0.0,1.0));
#255=DIRECTION('',(0.0,-1.0,0.0));
#256=SURFACE_STYLE_FILL_AREA(#387);
#257=ORIENTED_EDGE('',*,*,#381,.T.);
#258=ORIENTED_EDGE('',*,*,#378,.F.);
#259=ORIENTED_EDGE('',*,*,#388,.F.);
#260=ORIENTED_EDGE('',*,*,#383,.T.);
#261=ORIENTED_EDGE('',*,*,#386,.T.);
#262=CARTESIAN_POINT('',(2.42517264844765E-15,0.0,-39.6060749946214));
#263=DIRECTION('',(6.12323399573677E-17,0.0,-1.0));
#264=DIRECTION('',(0.0,1.0,0.0));
#265=SURFACE_STYLE_FILL_AREA(#389);
#266=ORIENTED_EDGE('',*,*,#377,.T.);
#267=ORIENTED_EDGE('',*,*,#384,.T.);
#268=ORIENTED_EDGE('',*,*,#388,.T.);
#269=CARTESIAN_POINT('',(2.50477469039223E-15,0.0,-40.9060749946214));
#270=DIRECTION('',(1.0,0.0,6.12323399573677E-17));
#271=DIRECTION('',(6.12323399573677E-17,0.0,-1.0));
#272=SURFACE_STYLE_FILL_AREA(#390);
#273=ORIENTED_EDGE('',*,*,#391,.F.);
#274=ORIENTED_EDGE('',*,*,#392,.T.);
#275=ORIENTED_EDGE('',*,*,#393,.F.);
#276=ORIENTED_EDGE('',*,*,#394,.F.);
#277=CARTESIAN_POINT('',(2.24147562857555E-15,0.0,-36.6060749946214));
#278=DIRECTION('',(6.12323399573677E-17,0.0,-1.0));
#279=DIRECTION('',(0.0,1.0,0.0));
#280=SURFACE_STYLE_FILL_AREA(#395);
#281=ORIENTED_EDGE('',*,*,#396,.F.);
#282=ORIENTED_EDGE('',*,*,#397,.T.);
#283=ORIENTED_EDGE('',*,*,#398,.T.);
#284=ORIENTED_EDGE('',*,*,#399,.F.);
#285=ORIENTED_EDGE('',*,*,#392,.F.);
#286=CARTESIAN_POINT('',(1.15766321133014E-15,0.0,-18.9060749946214));
#287=DIRECTION('',(-6.12323399573677E-17,-0.0,1.0));
#288=DIRECTION('',(0.0,1.0,0.0));
#289=SURFACE_STYLE_FILL_AREA(#400);
#290=ORIENTED_EDGE('',*,*,#401,.F.);
#291=ORIENTED_EDGE('',*,*,#402,.T.);
#292=ORIENTED_EDGE('',*,*,#403,.T.);
#293=ORIENTED_EDGE('',*,*,#404,.F.);
#294=ORIENTED_EDGE('',*,*,#405,.F.);
#295=ORIENTED_EDGE('',*,*,#398,.F.);
#296=CARTESIAN_POINT('',(1.77945772012261E-16,0.0,-2.90607499462137));
#297=DIRECTION('',(6.12323399573677E-17,0.0,-1.0));
#298=DIRECTION('',(-1.0,0.0,-6.12323399573677E-17));
#299=SURFACE_STYLE_FILL_AREA(#406);
#300=ORIENTED_EDGE('',*,*,#407,.F.);
#301=ORIENTED_EDGE('',*,*,#408,.T.);
#302=ORIENTED_EDGE('',*,*,#409,.F.);
#303=ORIENTED_EDGE('',*,*,#402,.F.);
#304=ORIENTED_EDGE('',*,*,#410,.F.);
#305=CARTESIAN_POINT('',(-9.67284978258462E-16,0.0,15.7969625026893));
#306=DIRECTION('',(6.12323399573677E-17,0.0,-1.0));
#307=DIRECTION('',(0.0,1.0,0.0));
#308=SURFACE_STYLE_FILL_AREA(#411);
#309=ORIENTED_EDGE('',*,*,#412,.F.);
#310=ORIENTED_EDGE('',*,*,#413,.T.);
#311=ORIENTED_EDGE('',*,*,#414,.F.);
#312=ORIENTED_EDGE('',*,*,#408,.F.);
#313=CARTESIAN_POINT('',(-1.94987804150627E-15,0.0,31.8439250053786));
#314=DIRECTION('',(6.12323399573677E-17,-0.0,-1.0));
#315=DIRECTION('',(0.0,1.0,0.0));
#316=SURFACE_STYLE_FILL_AREA(#415);
#317=ORIENTED_EDGE('',*,*,#413,.F.);
#318=ORIENTED_EDGE('',*,*,#416,.F.);
#319=CARTESIAN_POINT('',(-1.96518612649561E-15,1.25,32.0939250053786));
#320=DIRECTION('',(-6.12323399573677E-17,0.0,1.0));
#321=DIRECTION('',(0.0,-1.0,0.0));
#322=SURFACE_STYLE_FILL_AREA(#417);
#323=ORIENTED_EDGE('',*,*,#412,.T.);
#324=ORIENTED_EDGE('',*,*,#418,.F.);
#325=ORIENTED_EDGE('',*,*,#414,.T.);
#326=ORIENTED_EDGE('',*,*,#416,.T.);
#327=CARTESIAN_POINT('',(-1.94987804150627E-15,0.0,31.8439250053786));
#328=DIRECTION('',(6.12323399573677E-17,-0.0,-1.0));
#329=DIRECTION('',(0.0,1.0,0.0));
#330=SURFACE_STYLE_FILL_AREA(#419);
#331=ORIENTED_EDGE('',*,*,#407,.T.);
#332=ORIENTED_EDGE('',*,*,#420,.F.);
#333=ORIENTED_EDGE('',*,*,#403,.F.);
#334=ORIENTED_EDGE('',*,*,#409,.T.);
#335=ORIENTED_EDGE('',*,*,#418,.T.);
#336=CARTESIAN_POINT('',(-9.67284978258462E-16,0.0,15.7969625026893));
#337=DIRECTION('',(6.12323399573677E-17,0.0,-1.0));
#338=DIRECTION('',(0.0,1.0,0.0));
#339=SURFACE_STYLE_FILL_AREA(#421);
#340=ORIENTED_EDGE('',*,*,#401,.T.);
#341=ORIENTED_EDGE('',*,*,#397,.F.);
#342=ORIENTED_EDGE('',*,*,#422,.F.);
#343=ORIENTED_EDGE('',*,*,#404,.T.);
#344=ORIENTED_EDGE('',*,*,#420,.T.);
#345=ORIENTED_EDGE('',*,*,#410,.T.);
#346=CARTESIAN_POINT('',(1.77945772012261E-16,0.0,-2.90607499462137));
#347=DIRECTION('',(6.12323399573677E-17,0.0,-1.0));
#348=DIRECTION('',(-1.0,0.0,-6.12323399573677E-17));
#349=SURFACE_STYLE_FILL_AREA(#423);
#350=ORIENTED_EDGE('',*,*,#396,.T.);
#351=ORIENTED_EDGE('',*,*,#424,.F.);
#352=ORIENTED_EDGE('',*,*,#399,.T.);
#353=ORIENTED_EDGE('',*,*,#405,.T.);
#354=ORIENTED_EDGE('',*,*,#422,.T.);
#355=CARTESIAN_POINT('',(1.15766321133014E-15,0.0,-18.9060749946214));
#356=DIRECTION('',(-6.12323399573677E-17,-0.0,1.0));
#357=DIRECTION('',(0.0,1.0,0.0));
#358=SURFACE_STYLE_FILL_AREA(#425);
#359=ORIENTED_EDGE('',*,*,#391,.T.);
#360=ORIENTED_EDGE('',*,*,#426,.F.);
#361=ORIENTED_EDGE('',*,*,#393,.T.);
#362=ORIENTED_EDGE('',*,*,#424,.T.);
#363=CARTESIAN_POINT('',(2.24147562857555E-15,0.0,-36.6060749946214));
#364=DIRECTION('',(6.12323399573677E-17,0.0,-1.0));
#365=DIRECTION('',(0.0,1.0,0.0));
#366=SURFACE_STYLE_FILL_AREA(#427);
#367=ORIENTED_EDGE('',*,*,#394,.T.);
#368=ORIENTED_EDGE('',*,*,#426,.T.);
#369=CARTESIAN_POINT('',(2.34557060650308E-15,0.985,-38.3060749946214));
#370=DIRECTION('',(6.12323399573677E-17,0.0,-1.0));
#371=DIRECTION('',(0.0,1.0,0.0));
#372=CARTESIAN_POINT('',(0.0,3.0,0.0));
#373=VECTOR('',#428,1.0);
#374=CARTESIAN_POINT('',(0.0,-3.0,0.0));
#375=VECTOR('',#429,1.0);
#376=FILL_AREA_STYLE('',(#430));
#377=EDGE_CURVE('',#431,#432,#433,.T.);
#378=EDGE_CURVE('',#431,#434,#435,.T.);
#379=EDGE_CURVE('',#434,#432,#436,.T.);
#380=FILL_AREA_STYLE('',(#437));
#381=EDGE_CURVE('',#438,#434,#439,.T.);
#382=EDGE_CURVE('',#438,#440,#441,.T.);
#383=EDGE_CURVE('',#442,#440,#443,.T.);
#384=EDGE_CURVE('',#432,#442,#444,.T.);
#385=FILL_AREA_STYLE('',(#445));
#386=EDGE_CURVE('',#440,#438,#446,.T.);
#387=FILL_AREA_STYLE('',(#447));
#388=EDGE_CURVE('',#442,#431,#448,.T.);
#389=FILL_AREA_STYLE('',(#449));
#390=FILL_AREA_STYLE('',(#450));
#391=EDGE_CURVE('',#451,#452,#453,.T.);
#392=EDGE_CURVE('',#451,#454,#455,.T.);
#393=EDGE_CURVE('',#456,#454,#457,.T.);
#394=EDGE_CURVE('',#452,#456,#458,.T.);
#395=FILL_AREA_STYLE('',(#459));
#396=EDGE_CURVE('',#460,#451,#461,.T.);
#397=EDGE_CURVE('',#460,#462,#463,.T.);
#398=EDGE_CURVE('',#462,#464,#465,.T.);
#399=EDGE_CURVE('',#454,#464,#466,.T.);
#400=FILL_AREA_STYLE('',(#467));
#401=EDGE_CURVE('',#468,#462,#469,.T.);
#402=EDGE_CURVE('',#468,#470,#471,.T.);
#403=EDGE_CURVE('',#470,#472,#473,.T.);
#404=EDGE_CURVE('',#474,#472,#475,.T.);
#405=EDGE_CURVE('',#464,#474,#476,.T.);
#406=FILL_AREA_STYLE('',(#477));
#407=EDGE_CURVE('',#478,#479,#480,.T.);
#408=EDGE_CURVE('',#478,#481,#482,.T.);
#409=EDGE_CURVE('',#470,#481,#483,.T.);
#410=EDGE_CURVE('',#479,#468,#484,.T.);
#411=FILL_AREA_STYLE('',(#485));
#412=EDGE_CURVE('',#486,#478,#487,.T.);
#413=EDGE_CURVE('',#486,#488,#489,.T.);
#414=EDGE_CURVE('',#481,#488,#490,.T.);
#415=FILL_AREA_STYLE('',(#491));
#416=EDGE_CURVE('',#488,#486,#492,.T.);
#417=FILL_AREA_STYLE('',(#493));
#418=EDGE_CURVE('',#481,#478,#494,.T.);
#419=FILL_AREA_STYLE('',(#495));
#420=EDGE_CURVE('',#472,#479,#496,.T.);
#421=FILL_AREA_STYLE('',(#497));
#422=EDGE_CURVE('',#474,#460,#498,.T.);
#423=FILL_AREA_STYLE('',(#499));
#424=EDGE_CURVE('',#454,#451,#500,.T.);
#425=FILL_AREA_STYLE('',(#501));
#426=EDGE_CURVE('',#456,#452,#502,.T.);
#427=FILL_AREA_STYLE('',(#503));
#428=DIRECTION('',(0.0,-1.0,0.0));
#429=DIRECTION('',(0.0,1.0,0.0));
#430=FILL_AREA_STYLE_COLOUR('',#504);
#431=VERTEX_POINT('',#505);
#432=VERTEX_POINT('',#506);
#433=CIRCLE('',#507,2.0);
#434=VERTEX_POINT('',#508);
#435=CIRCLE('',#509,2.0);
#436=CIRCLE('',#510,2.0);
#437=FILL_AREA_STYLE_COLOUR('',#511);
#438=VERTEX_POINT('',#512);
#439=LINE('',#513,#514);
#440=VERTEX_POINT('',#515);
#441=CIRCLE('',#516,2.0);
#442=VERTEX_POINT('',#517);
#443=LINE('',#518,#519);
#444=CIRCLE('',#520,2.0);
#445=FILL_AREA_STYLE_COLOUR('',#521);
#446=CIRCLE('',#522,2.0);
#447=FILL_AREA_STYLE_COLOUR('',#523);
#448=CIRCLE('',#524,2.0);
#449=FILL_AREA_STYLE_COLOUR('',#525);
#450=FILL_AREA_STYLE_COLOUR('',#526);
#451=VERTEX_POINT('',#527);
#452=VERTEX_POINT('',#528);
#453=LINE('',#529,#530);
#454=VERTEX_POINT('',#531);
#455=CIRCLE('',#532,1.97);
#456=VERTEX_POINT('',#533);
#457=LINE('',#534,#535);
#458=CIRCLE('',#536,1.97);
#459=FILL_AREA_STYLE_COLOUR('',#537);
#460=VERTEX_POINT('',#538);
#461=LINE('',#539,#540);
#462=VERTEX_POINT('',#541);
#463=CIRCLE('',#542,2.24925976930428);
#464=VERTEX_POINT('',#543);
#465=CIRCLE('',#544,2.24925976930428);
#466=LINE('',#545,#546);
#467=FILL_AREA_STYLE_COLOUR('',#547);
#468=VERTEX_POINT('',#548);
#469=CIRCLE('',#549,6.0);
#470=VERTEX_POINT('',#550);
#471=CIRCLE('',#551,3.0);
#472=VERTEX_POINT('',#552);
#473=CIRCLE('',#553,3.0);
#474=VERTEX_POINT('',#554);
#475=CIRCLE('',#555,6.0);
#476=CIRCLE('',#556,2.24925976930428);
#477=FILL_AREA_STYLE_COLOUR('',#557);
#478=VERTEX_POINT('',#558);
#479=VERTEX_POINT('',#559);
#480=LINE('',#560,#561);
#481=VERTEX_POINT('',#562);
#482=CIRCLE('',#563,3.0);
#483=LINE('',#564,#565);
#484=CIRCLE('',#566,3.0);
#485=FILL_AREA_STYLE_COLOUR('',#567);
#486=VERTEX_POINT('',#568);
#487=LINE('',#569,#570);
#488=VERTEX_POINT('',#571);
#489=CIRCLE('',#572,2.5);
#490=LINE('',#573,#574);
#491=FILL_AREA_STYLE_COLOUR('',#575);
#492=CIRCLE('',#576,2.5);
#493=FILL_AREA_STYLE_COLOUR('',#577);
#494=CIRCLE('',#578,3.0);
#495=FILL_AREA_STYLE_COLOUR('',#579);
#496=CIRCLE('',#580,3.0);
#497=FILL_AREA_STYLE_COLOUR('',#581);
#498=CIRCLE('',#582,2.24925976930428);
#499=FILL_AREA_STYLE_COLOUR('',#583);
#500=CIRCLE('',#584,1.97);
#501=FILL_AREA_STYLE_COLOUR('',#585);
#502=CIRCLE('',#586,1.97);
#503=FILL_AREA_STYLE_COLOUR('',#587);
#504=COLOUR_RGB('',0.800000011920929,0.800000011920929,0.800000011920929);
#505=CARTESIAN_POINT('',(-2.0,-1.82739228979645E-49,-40.9060749946214));
#506=CARTESIAN_POINT('',(2.0,-1.82739228979645E-49,-40.9060749946214));
#507=AXIS2_PLACEMENT_3D('',#588,#589,#590);
#508=CARTESIAN_POINT('',(2.50477469039223E-15,2.0,-40.9060749946214));
#509=AXIS2_PLACEMENT_3D('',#591,#592,#593);
#510=AXIS2_PLACEMENT_3D('',#594,#595,#596);
#511=COLOUR_RGB('',0.800000011920929,0.800000011920929,0.800000011920929);
#512=CARTESIAN_POINT('',(2.34557060650308E-15,2.0,-38.3060749946214));
#513=CARTESIAN_POINT('',(2.18024328861818E-15,2.0,-39.6060749946214));
#514=VECTOR('',#597,1.0);
#515=CARTESIAN_POINT('',(2.59049996633255E-15,-2.0,-38.3060749946214));
#516=AXIS2_PLACEMENT_3D('',#598,#599,#600);
#517=CARTESIAN_POINT('',(2.7497040502217E-15,-2.0,-40.9060749946214));
#518=CARTESIAN_POINT('',(2.67010200827712E-15,-2.0,-39.6060749946214));
#519=VECTOR('',#601,1.0);
#520=AXIS2_PLACEMENT_3D('',#602,#603,#604);
#521=COLOUR_RGB('',0.800000011920929,0.800000011920929,0.800000011920929);
#522=AXIS2_PLACEMENT_3D('',#605,#606,#607);
#523=COLOUR_RGB('',0.800000011920929,0.800000011920929,0.800000011920929);
#524=AXIS2_PLACEMENT_3D('',#608,#609,#610);
#525=COLOUR_RGB('',0.800000011920929,0.800000011920929,0.800000011920929);
#526=COLOUR_RGB('',0.498039215803146,0.498039215803146,0.498039215803146);
#527=CARTESIAN_POINT('',(2.13738065064803E-15,1.97,-34.9060749946214));
#528=CARTESIAN_POINT('',(2.34557060650308E-15,1.97,-38.3060749946214));
#529=CARTESIAN_POINT('',(2.00022020914352E-15,1.97,-36.6060749946214));
#530=VECTOR('',#611,1.0);
#531=CARTESIAN_POINT('',(2.37863607008005E-15,-1.97,-34.9060749946214));
#532=AXIS2_PLACEMENT_3D('',#612,#613,#614);
#533=CARTESIAN_POINT('',(2.5868260259351E-15,-1.97,-38.3060749946214));
#534=CARTESIAN_POINT('',(2.48273104800758E-15,-1.97,-36.6060749946214));
#535=VECTOR('',#615,1.0);
#536=AXIS2_PLACEMENT_3D('',#616,#617,#618);
#537=COLOUR_RGB('',0.498039215803146,0.498039215803146,0.498039215803146);
#538=CARTESIAN_POINT('',(1.77945772012261E-16,2.24925976930428,-2.90607499462137));
#539=CARTESIAN_POINT('',(8.99308062767659E-16,2.10962988465214,-18.9060749946214));
#540=VECTOR('',#619,1.0);
#541=CARTESIAN_POINT('',(2.24925976930428,2.7545487769294E-16,-2.90607499462137));
#542=AXIS2_PLACEMENT_3D('',#620,#621,#622);
#543=CARTESIAN_POINT('',(4.53400649705201E-16,-2.24925976930428,-2.90607499462137));
#544=AXIS2_PLACEMENT_3D('',#623,#624,#625);
#545=CARTESIAN_POINT('',(1.41601835989263E-15,-2.10962988465214,-18.9060749946214));
#546=VECTOR('',#626,1.0);
#547=COLOUR_RGB('',0.498039215803146,0.498039215803146,0.498039215803146);
#548=CARTESIAN_POINT('',(3.0,3.67394039744206E-16,1.83697019872103E-16));
#549=AXIS2_PLACEMENT_3D('',#627,#628,#629);
#550=CARTESIAN_POINT('',(3.67394039744206E-16,-3.0,2.24963967399279E-32));
#551=AXIS2_PLACEMENT_3D('',#630,#631,#632);
#552=CARTESIAN_POINT('',(-3.0,-3.67394039744206E-16,-1.83697019872103E-16));
#553=AXIS2_PLACEMENT_3D('',#633,#634,#635);
#554=CARTESIAN_POINT('',(-2.24925976930428,-2.7545487769294E-16,-2.90607499462137));
#555=AXIS2_PLACEMENT_3D('',#636,#637,#638);
#556=AXIS2_PLACEMENT_3D('',#639,#640,#641);
#557=COLOUR_RGB('',0.498039215803146,0.498039215803146,0.498039215803146);
#558=CARTESIAN_POINT('',(-1.93456995651692E-15,3.0,31.5939250053786));
#559=CARTESIAN_POINT('',(0.0,3.0,0.0));
#560=CARTESIAN_POINT('',(-1.33467901800267E-15,3.0,15.7969625026893));
#561=VECTOR('',#642,1.0);
#562=CARTESIAN_POINT('',(-1.56717591677272E-15,-3.0,31.5939250053786));
#563=AXIS2_PLACEMENT_3D('',#643,#644,#645);
#564=CARTESIAN_POINT('',(-5.99890938514256E-16,-3.0,15.7969625026893));
#565=VECTOR('',#646,1.0);
#566=AXIS2_PLACEMENT_3D('',#647,#648,#649);
#567=COLOUR_RGB('',0.498039215803146,0.498039215803146,0.498039215803146);
#568=CARTESIAN_POINT('',(-1.96518612649561E-15,2.5,32.0939250053786));
#569=CARTESIAN_POINT('',(-2.28665591127179E-15,2.75,31.8439250053786));
#570=VECTOR('',#650,1.0);
#571=CARTESIAN_POINT('',(-1.65902442670877E-15,-2.5,32.0939250053786));
#572=AXIS2_PLACEMENT_3D('',#651,#652,#653);
#573=CARTESIAN_POINT('',(-1.61310017174074E-15,-2.75,31.8439250053786));
#574=VECTOR('',#654,1.0);
#575=COLOUR_RGB('',0.498039215803146,0.498039215803146,0.498039215803146);
#576=AXIS2_PLACEMENT_3D('',#655,#656,#657);
#577=COLOUR_RGB('',0.498039215803146,0.498039215803146,0.498039215803146);
#578=AXIS2_PLACEMENT_3D('',#658,#659,#660);
#579=COLOUR_RGB('',0.498039215803146,0.498039215803146,0.498039215803146);
#580=AXIS2_PLACEMENT_3D('',#661,#662,#663);
#581=COLOUR_RGB('',0.498039215803146,0.498039215803146,0.498039215803146);
#582=AXIS2_PLACEMENT_3D('',#664,#665,#666);
#583=COLOUR_RGB('',0.498039215803146,0.498039215803146,0.498039215803146);
#584=AXIS2_PLACEMENT_3D('',#667,#668,#669);
#585=COLOUR_RGB('',0.498039215803146,0.498039215803146,0.498039215803146);
#586=AXIS2_PLACEMENT_3D('',#670,#671,#672);
#587=COLOUR_RGB('',0.498039215803146,0.498039215803146,0.498039215803146);
#588=CARTESIAN_POINT('',(2.50477469039223E-15,0.0,-40.9060749946214));
#589=DIRECTION('',(-7.49879891330929E-33,-1.0,1.22464679914735E-16));
#590=DIRECTION('',(0.0,1.22464679914735E-16,1.0));
#591=CARTESIAN_POINT('',(2.50477469039223E-15,0.0,-40.9060749946214));
#592=DIRECTION('',(6.12323399573677E-17,0.0,-1.0));
#593=DIRECTION('',(0.0,1.0,0.0));
#594=CARTESIAN_POINT('',(2.50477469039223E-15,0.0,-40.9060749946214));
#595=DIRECTION('',(6.12323399573677E-17,0.0,-1.0));
#596=DIRECTION('',(0.0,1.0,0.0));
#597=DIRECTION('',(6.12323399573677E-17,0.0,-1.0));
#598=CARTESIAN_POINT('',(2.34557060650308E-15,0.0,-38.3060749946214));
#599=DIRECTION('',(6.12323399573677E-17,0.0,-1.0));
#600=DIRECTION('',(0.0,1.0,0.0));
#601=DIRECTION('',(-6.12323399573677E-17,-0.0,1.0));
#602=CARTESIAN_POINT('',(2.50477469039223E-15,0.0,-40.9060749946214));
#603=DIRECTION('',(6.12323399573677E-17,0.0,-1.0));
#604=DIRECTION('',(0.0,1.0,0.0));
#605=CARTESIAN_POINT('',(2.34557060650308E-15,0.0,-38.3060749946214));
#606=DIRECTION('',(6.12323399573677E-17,0.0,-1.0));
#607=DIRECTION('',(0.0,1.0,0.0));
#608=CARTESIAN_POINT('',(2.50477469039223E-15,0.0,-40.9060749946214));
#609=DIRECTION('',(6.12323399573677E-17,0.0,-1.0));
#610=DIRECTION('',(0.0,1.0,0.0));
#611=DIRECTION('',(6.12323399573677E-17,0.0,-1.0));
#612=CARTESIAN_POINT('',(2.13738065064803E-15,0.0,-34.9060749946214));
#613=DIRECTION('',(6.12323399573677E-17,0.0,-1.0));
#614=DIRECTION('',(0.0,1.0,0.0));
#615=DIRECTION('',(-6.12323399573677E-17,-0.0,1.0));
#616=CARTESIAN_POINT('',(2.34557060650308E-15,0.0,-38.3060749946214));
#617=DIRECTION('',(6.12323399573677E-17,0.0,-1.0));
#618=DIRECTION('',(0.0,1.0,0.0));
#619=DIRECTION('',(6.22987007940614E-17,-0.00872653549837394,-0.999961923064171));
#620=CARTESIAN_POINT('',(1.77945772012261E-16,0.0,-2.90607499462137));
#621=DIRECTION('',(6.12323399573677E-17,0.0,-1.0));
#622=DIRECTION('',(0.0,1.0,0.0));
#623=CARTESIAN_POINT('',(1.77945772012261E-16,0.0,-2.90607499462137));
#624=DIRECTION('',(6.12323399573677E-17,0.0,-1.0));
#625=DIRECTION('',(0.0,1.0,0.0));
#626=DIRECTION('',(-6.01613160409155E-17,-0.00872653549837394,0.999961923064171));
#627=CARTESIAN_POINT('',(8.24925976930428,1.01024295718135E-15,-2.90607499462137));
#628=DIRECTION('',(1.22464679914735E-16,-1.0,7.49879891330929E-33));
#629=DIRECTION('',(1.0,1.22464679914735E-16,6.12323399573677E-17));
#630=CARTESIAN_POINT('',(0.0,0.0,0.0));
#631=DIRECTION('',(6.12323399573677E-17,0.0,-1.0));
#632=DIRECTION('',(0.0,1.0,0.0));
#633=CARTESIAN_POINT('',(0.0,0.0,0.0));
#634=DIRECTION('',(6.12323399573677E-17,0.0,-1.0));
#635=DIRECTION('',(0.0,1.0,0.0));
#636=CARTESIAN_POINT('',(-8.24925976930428,-1.01024295718135E-15,-2.90607499462137));
#637=DIRECTION('',(1.22464679914735E-16,-1.0,7.49879891330929E-33));
#638=DIRECTION('',(-1.0,-1.22464679914735E-16,-6.12323399573677E-17));
#639=CARTESIAN_POINT('',(1.77945772012261E-16,0.0,-2.90607499462137));
#640=DIRECTION('',(6.12323399573677E-17,0.0,-1.0));
#641=DIRECTION('',(0.0,1.0,0.0));
#642=DIRECTION('',(6.12323399573677E-17,0.0,-1.0));
#643=CARTESIAN_POINT('',(-1.93456995651692E-15,0.0,31.5939250053786));
#644=DIRECTION('',(6.12323399573676E-17,0.0,-1.0));
#645=DIRECTION('',(0.0,1.0,0.0));
#646=DIRECTION('',(-6.12323399573677E-17,-0.0,1.0));
#647=CARTESIAN_POINT('',(0.0,0.0,0.0));
#648=DIRECTION('',(6.12323399573677E-17,0.0,-1.0));
#649=DIRECTION('',(0.0,1.0,0.0));
#650=DIRECTION('',(-4.32978028117747E-17,0.707106781186548,-0.707106781186548));
#651=CARTESIAN_POINT('',(-1.96518612649561E-15,0.0,32.0939250053786));
#652=DIRECTION('',(6.12323399573677E-17,0.0,-1.0));
#653=DIRECTION('',(0.0,1.0,0.0));
#654=DIRECTION('',(-1.29893408435324E-16,0.707106781186548,0.707106781186548));
#655=CARTESIAN_POINT('',(-1.96518612649561E-15,0.0,32.0939250053786));
#656=DIRECTION('',(6.12323399573677E-17,0.0,-1.0));
#657=DIRECTION('',(0.0,1.0,0.0));
#658=CARTESIAN_POINT('',(-1.93456995651692E-15,0.0,31.5939250053786));
#659=DIRECTION('',(6.12323399573676E-17,0.0,-1.0));
#660=DIRECTION('',(0.0,1.0,0.0));
#661=CARTESIAN_POINT('',(0.0,0.0,0.0));
#662=DIRECTION('',(6.12323399573677E-17,0.0,-1.0));
#663=DIRECTION('',(0.0,1.0,0.0));
#664=CARTESIAN_POINT('',(1.77945772012261E-16,0.0,-2.90607499462137));
#665=DIRECTION('',(6.12323399573677E-17,0.0,-1.0));
#666=DIRECTION('',(0.0,1.0,0.0));
#667=CARTESIAN_POINT('',(2.13738065064803E-15,0.0,-34.9060749946214));
#668=DIRECTION('',(6.12323399573677E-17,0.0,-1.0));
#669=DIRECTION('',(0.0,1.0,0.0));
#670=CARTESIAN_POINT('',(2.34557060650308E-15,0.0,-38.3060749946214));
#671=DIRECTION('',(6.12323399573677E-17,0.0,-1.0));
#672=DIRECTION('',(0.0,1.0,0.0));
#673=DIRECTION('',(0.0,0.0,1.0));
#674=DIRECTION('',(1.0,0.0,0.0));
#675=CARTESIAN_POINT('',(0.0,0.0,32.093925));
#676=AXIS2_PLACEMENT_3D('PCS', #675,#673,#674);
#677=CARTESIAN_POINT('',(0.0,0.0,0.000000));
#678=AXIS2_PLACEMENT_3D('MCS', #677,#673,#674);
#679=CARTESIAN_POINT('',(0.0,0.0,-42.906075));
#680=AXIS2_PLACEMENT_3D('CIP', #679,#673,#674);
ENDSEC;
END-ISO-10303-21;
