ISO-10303-21;
HEADER;
FILE_DESCRIPTION(('STEP AP214'),'1');
FILE_NAME('608014188-000-00-E43.stp','2023-11-06T12:45:32',(' '),(' '),'Spatial InterOp 3D',' ',' ');
FILE_SCHEMA(('AUTOMOTIVE_DESIGN { 1 0 10303 214 1 1 1 1 }'));
ENDSEC;
DATA;
#1=MECHANICAL_DESIGN_GEOMETRIC_PRESENTATION_REPRESENTATION(' ',(#12,#13,#14,#15,#16,#17,#18,#19,#20,#21,#22,#23,#24,#25,#26,#27,#28,#29,#30,#31,#32,#33,#34,#35,#36,#37),#8);
#2=PRODUCT_DEFINITION_CONTEXT('',#38,'design');
#3=APPLICATION_PROTOCOL_DEFINITION('INTERNATIONAL STANDARD','automotive_design',1994,#38);
#4=PRODUCT_CATEGORY_RELATIONSHIP('NONE','NONE',#39,#40);
#5=SHAPE_DEFINITION_REPRESENTATION(#41,#42);
#6=SHAPE_DEFINITION_REPRESENTATION(#41,#43);
#7=SHAPE_DEFINITION_REPRESENTATION(#41,#44);
#8= (GEOMETRIC_REPRESENTATION_CONTEXT(3)GLOBAL_UNCERTAINTY_ASSIGNED_CONTEXT((#47))GLOBAL_UNIT_ASSIGNED_CONTEXT((#49,#50,#51))REPRESENTATION_CONTEXT('NONE','WORKSPACE'));
#12=STYLED_ITEM('',(#53),#54);
#13=STYLED_ITEM('',(#55),#56);
#14=STYLED_ITEM('',(#57),#58);
#15=STYLED_ITEM('',(#59),#60);
#16=STYLED_ITEM('',(#61),#62);
#17=STYLED_ITEM('',(#63),#64);
#18=STYLED_ITEM('',(#65),#66);
#19=STYLED_ITEM('',(#67),#68);
#20=STYLED_ITEM('',(#69),#70);
#21=STYLED_ITEM('',(#71),#72);
#22=STYLED_ITEM('',(#73),#74);
#23=STYLED_ITEM('',(#75),#76);
#24=STYLED_ITEM('',(#77),#78);
#25=STYLED_ITEM('',(#79),#80);
#26=STYLED_ITEM('',(#81),#82);
#27=STYLED_ITEM('',(#83),#84);
#28=STYLED_ITEM('',(#85),#86);
#29=STYLED_ITEM('',(#87),#88);
#30=STYLED_ITEM('',(#89),#90);
#31=STYLED_ITEM('',(#91),#92);
#32=STYLED_ITEM('',(#93),#94);
#33=STYLED_ITEM('',(#95),#96);
#34=STYLED_ITEM('',(#97),#98);
#35=STYLED_ITEM('',(#99),#100);
#36=STYLED_ITEM('',(#101),#102);
#37=STYLED_ITEM('',(#103),#104);
#38=APPLICATION_CONTEXT(' ');
#39=PRODUCT_CATEGORY('part','NONE');
#40=PRODUCT_RELATED_PRODUCT_CATEGORY('detail',' ',(#105));
#41=PRODUCT_DEFINITION_SHAPE('NONE','NONE',#106);
#42=ADVANCED_BREP_SHAPE_REPRESENTATION('1',(#107,#108),#8);
#43=ADVANCED_BREP_SHAPE_REPRESENTATION('2',(#109,#110),#8);
#44=GEOMETRICALLY_BOUNDED_SURFACE_SHAPE_REPRESENTATION('3',(#111,#112),#8);
#47=UNCERTAINTY_MEASURE_WITH_UNIT(LENGTH_MEASURE(1.0E-06),#49,'','');
#49= (CONVERSION_BASED_UNIT('MILLIMETRE',#115)LENGTH_UNIT()NAMED_UNIT(#118));
#50= (NAMED_UNIT(#120)PLANE_ANGLE_UNIT()SI_UNIT($,.RADIAN.));
#51= (NAMED_UNIT(#120)SOLID_ANGLE_UNIT()SI_UNIT($,.STERADIAN.));
#53=PRESENTATION_STYLE_ASSIGNMENT((#126));
#54=COMPOSITE_CURVE('',(#127),.U.);
#55=PRESENTATION_STYLE_ASSIGNMENT((#128));
#56=COMPOSITE_CURVE('',(#129),.U.);
#57=PRESENTATION_STYLE_ASSIGNMENT((#130));
#58=COMPOSITE_CURVE('',(#131),.U.);
#59=PRESENTATION_STYLE_ASSIGNMENT((#132));
#60=COMPOSITE_CURVE('',(#133),.U.);
#61=PRESENTATION_STYLE_ASSIGNMENT((#134));
#62=COMPOSITE_CURVE('',(#135),.U.);
#63=PRESENTATION_STYLE_ASSIGNMENT((#136));
#64=COMPOSITE_CURVE('',(#137),.U.);
#65=PRESENTATION_STYLE_ASSIGNMENT((#138));
#66=COMPOSITE_CURVE('',(#139),.U.);
#67=PRESENTATION_STYLE_ASSIGNMENT((#140));
#68=COMPOSITE_CURVE('',(#141),.U.);
#69=PRESENTATION_STYLE_ASSIGNMENT((#142));
#70=COMPOSITE_CURVE('',(#143),.U.);
#71=PRESENTATION_STYLE_ASSIGNMENT((#144));
#72=COMPOSITE_CURVE('',(#145),.U.);
#73=PRESENTATION_STYLE_ASSIGNMENT((#146));
#74=COMPOSITE_CURVE('',(#147),.U.);
#75=PRESENTATION_STYLE_ASSIGNMENT((#148));
#76=COMPOSITE_CURVE('',(#149),.U.);
#77=PRESENTATION_STYLE_ASSIGNMENT((#150));
#78=COMPOSITE_CURVE('',(#151),.U.);
#79=PRESENTATION_STYLE_ASSIGNMENT((#152));
#80=COMPOSITE_CURVE('',(#153),.U.);
#81=PRESENTATION_STYLE_ASSIGNMENT((#154));
#82=ADVANCED_FACE('',(#155),#156,.T.);
#83=PRESENTATION_STYLE_ASSIGNMENT((#157));
#84=ADVANCED_FACE('',(#158),#159,.T.);
#85=PRESENTATION_STYLE_ASSIGNMENT((#160));
#86=ADVANCED_FACE('',(#161),#162,.T.);
#87=PRESENTATION_STYLE_ASSIGNMENT((#163));
#88=ADVANCED_FACE('',(#164),#165,.T.);
#89=PRESENTATION_STYLE_ASSIGNMENT((#166));
#90=ADVANCED_FACE('',(#167),#168,.T.);
#91=PRESENTATION_STYLE_ASSIGNMENT((#169));
#92=ADVANCED_FACE('',(#170),#171,.T.);
#93=PRESENTATION_STYLE_ASSIGNMENT((#172));
#94=ADVANCED_FACE('',(#173),#174,.T.);
#95=PRESENTATION_STYLE_ASSIGNMENT((#175));
#96=ADVANCED_FACE('',(#176),#177,.T.);
#97=PRESENTATION_STYLE_ASSIGNMENT((#178));
#98=ADVANCED_FACE('',(#179),#180,.T.);
#99=PRESENTATION_STYLE_ASSIGNMENT((#181));
#100=ADVANCED_FACE('',(#182),#183,.T.);
#101=PRESENTATION_STYLE_ASSIGNMENT((#184));
#102=ADVANCED_FACE('',(#185),#186,.T.);
#103=PRESENTATION_STYLE_ASSIGNMENT((#187));
#104=ADVANCED_FACE('',(#188),#189,.T.);
#105=PRODUCT('1','','PART--DESC',(#190));
#106=PRODUCT_DEFINITION('','NONE',#191,#2);
#107=MANIFOLD_SOLID_BREP('1',#192);
#108=AXIS2_PLACEMENT_3D('',#193,#194,#195);
#109=MANIFOLD_SOLID_BREP('2',#196);
#110=AXIS2_PLACEMENT_3D('',#197,#198,#199);
#111=GEOMETRIC_SET('3',(#54,#56,#58,#60,#62,#64,#66,#68,#70,#72,#74,#76,#78,#80));
#112=AXIS2_PLACEMENT_3D('',#200,#201,#202);
#115=LENGTH_MEASURE_WITH_UNIT(LENGTH_MEASURE(1.0),#203);
#118=DIMENSIONAL_EXPONENTS(1.0,0.0,0.0,0.0,0.0,0.0,0.0);
#120=DIMENSIONAL_EXPONENTS(0.0,0.0,0.0,0.0,0.0,0.0,0.0);
#126=CURVE_STYLE('',#204,POSITIVE_LENGTH_MEASURE(1.0E-06),#205);
#127=COMPOSITE_CURVE_SEGMENT(.CONTINUOUS.,.T.,#206);
#128=CURVE_STYLE('',#207,POSITIVE_LENGTH_MEASURE(1.0E-06),#208);
#129=COMPOSITE_CURVE_SEGMENT(.CONTINUOUS.,.T.,#209);
#130=CURVE_STYLE('',#210,POSITIVE_LENGTH_MEASURE(1.0E-06),#211);
#131=COMPOSITE_CURVE_SEGMENT(.CONTINUOUS.,.T.,#212);
#132=CURVE_STYLE('',#213,POSITIVE_LENGTH_MEASURE(1.0E-06),#214);
#133=COMPOSITE_CURVE_SEGMENT(.CONTINUOUS.,.T.,#215);
#134=CURVE_STYLE('',#216,POSITIVE_LENGTH_MEASURE(1.0E-06),#217);
#135=COMPOSITE_CURVE_SEGMENT(.CONTINUOUS.,.T.,#218);
#136=CURVE_STYLE('',#219,POSITIVE_LENGTH_MEASURE(1.0E-06),#220);
#137=COMPOSITE_CURVE_SEGMENT(.CONTINUOUS.,.T.,#221);
#138=CURVE_STYLE('',#222,POSITIVE_LENGTH_MEASURE(1.0E-06),#223);
#139=COMPOSITE_CURVE_SEGMENT(.CONTINUOUS.,.T.,#224);
#140=CURVE_STYLE('',#225,POSITIVE_LENGTH_MEASURE(1.0E-06),#226);
#141=COMPOSITE_CURVE_SEGMENT(.CONTINUOUS.,.T.,#227);
#142=CURVE_STYLE('',#228,POSITIVE_LENGTH_MEASURE(1.0E-06),#229);
#143=COMPOSITE_CURVE_SEGMENT(.CONTINUOUS.,.T.,#230);
#144=CURVE_STYLE('',#231,POSITIVE_LENGTH_MEASURE(1.0E-06),#232);
#145=COMPOSITE_CURVE_SEGMENT(.CONTINUOUS.,.T.,#233);
#146=CURVE_STYLE('',#234,POSITIVE_LENGTH_MEASURE(1.0E-06),#235);
#147=COMPOSITE_CURVE_SEGMENT(.CONTINUOUS.,.T.,#236);
#148=CURVE_STYLE('',#237,POSITIVE_LENGTH_MEASURE(1.0E-06),#238);
#149=COMPOSITE_CURVE_SEGMENT(.CONTINUOUS.,.T.,#239);
#150=CURVE_STYLE('',#240,POSITIVE_LENGTH_MEASURE(1.0E-06),#241);
#151=COMPOSITE_CURVE_SEGMENT(.CONTINUOUS.,.T.,#242);
#152=CURVE_STYLE('',#243,POSITIVE_LENGTH_MEASURE(1.0E-06),#244);
#153=COMPOSITE_CURVE_SEGMENT(.CONTINUOUS.,.T.,#245);
#154=SURFACE_STYLE_USAGE(.BOTH.,#246);
#155=FACE_OUTER_BOUND('',#247,.T.);
#156=CONICAL_SURFACE('',#248,2.91339745962156,0.523598775598303);
#157=SURFACE_STYLE_USAGE(.BOTH.,#249);
#158=FACE_OUTER_BOUND('',#250,.T.);
#159=CYLINDRICAL_SURFACE('',#251,3.0);
#160=SURFACE_STYLE_USAGE(.BOTH.,#252);
#161=FACE_OUTER_BOUND('',#253,.T.);
#162=CYLINDRICAL_SURFACE('',#254,3.0);
#163=SURFACE_STYLE_USAGE(.BOTH.,#255);
#164=FACE_OUTER_BOUND('',#256,.T.);
#165=CONICAL_SURFACE('',#257,2.91339745962156,0.523598775598303);
#166=SURFACE_STYLE_USAGE(.BOTH.,#258);
#167=FACE_OUTER_BOUND('',#259,.T.);
#168=PLANE('',#260);
#169=SURFACE_STYLE_USAGE(.BOTH.,#261);
#170=FACE_OUTER_BOUND('',#262,.T.);
#171=PLANE('',#263);
#172=SURFACE_STYLE_USAGE(.BOTH.,#264);
#173=FACE_OUTER_BOUND('',#265,.T.);
#174=CYLINDRICAL_SURFACE('',#266,3.0);
#175=SURFACE_STYLE_USAGE(.BOTH.,#267);
#176=FACE_OUTER_BOUND('',#268,.T.);
#177=CONICAL_SURFACE('',#269,2.35,0.785398163397448);
#178=SURFACE_STYLE_USAGE(.BOTH.,#270);
#179=FACE_OUTER_BOUND('',#271,.T.);
#180=PLANE('',#272);
#181=SURFACE_STYLE_USAGE(.BOTH.,#273);
#182=FACE_OUTER_BOUND('',#274,.T.);
#183=CONICAL_SURFACE('',#275,2.35,0.785398163397448);
#184=SURFACE_STYLE_USAGE(.BOTH.,#276);
#185=FACE_OUTER_BOUND('',#277,.T.);
#186=CYLINDRICAL_SURFACE('',#278,3.0);
#187=SURFACE_STYLE_USAGE(.BOTH.,#279);
#188=FACE_OUTER_BOUND('',#280,.T.);
#189=PLANE('',#281);
#190=PRODUCT_CONTEXT('',#38,'mechanical');
#191=PRODUCT_DEFINITION_FORMATION_WITH_SPECIFIED_SOURCE(' ','NONE',#105,.NOT_KNOWN.);
#192=CLOSED_SHELL('',(#82,#84,#86,#88,#90,#92));
#193=CARTESIAN_POINT('',(0.0,0.0,0.0));
#194=DIRECTION('',(0.0,0.0,1.0));
#195=DIRECTION('',(1.0,0.0,0.0));
#196=CLOSED_SHELL('',(#94,#96,#98,#100,#102,#104));
#197=CARTESIAN_POINT('',(0.0,0.0,0.0));
#198=DIRECTION('',(0.0,0.0,1.0));
#199=DIRECTION('',(1.0,0.0,0.0));
#200=CARTESIAN_POINT('',(0.0,0.0,0.0));
#201=DIRECTION('',(0.0,0.0,1.0));
#202=DIRECTION('',(1.0,0.0,0.0));
#203= (NAMED_UNIT(#118)LENGTH_UNIT()SI_UNIT(.MILLI.,.METRE.));
#204=DRAUGHTING_PRE_DEFINED_CURVE_FONT('continuous');
#205=COLOUR_RGB('',0.0,0.0,1.0);
#206=TRIMMED_CURVE('',#283,(PARAMETER_VALUE(0.0)),(PARAMETER_VALUE(2.82679491924311)),.T.,.UNSPECIFIED.);
#207=DRAUGHTING_PRE_DEFINED_CURVE_FONT('continuous');
#208=COLOUR_RGB('',0.0,0.0,1.0);
#209=TRIMMED_CURVE('',#284,(PARAMETER_VALUE(0.0)),(PARAMETER_VALUE(0.346410161513773)),.T.,.UNSPECIFIED.);
#210=DRAUGHTING_PRE_DEFINED_CURVE_FONT('continuous');
#211=COLOUR_RGB('',0.0,0.0,1.0);
#212=TRIMMED_CURVE('',#285,(PARAMETER_VALUE(0.0)),(PARAMETER_VALUE(2.82679491924311)),.T.,.UNSPECIFIED.);
#213=DRAUGHTING_PRE_DEFINED_CURVE_FONT('continuous');
#214=COLOUR_RGB('',0.498039215803146,0.498039215803146,0.498039215803146);
#215=TRIMMED_CURVE('',#286,(PARAMETER_VALUE(0.0)),(PARAMETER_VALUE(2.0)),.T.,.UNSPECIFIED.);
#216=DRAUGHTING_PRE_DEFINED_CURVE_FONT('continuous');
#217=COLOUR_RGB('',0.0,0.0,1.0);
#218=TRIMMED_CURVE('',#287,(PARAMETER_VALUE(0.0)),(PARAMETER_VALUE(3.0)),.T.,.UNSPECIFIED.);
#219=DRAUGHTING_PRE_DEFINED_CURVE_FONT('continuous');
#220=COLOUR_RGB('',0.498039215803146,0.498039215803146,0.498039215803146);
#221=TRIMMED_CURVE('',#288,(PARAMETER_VALUE(0.0)),(PARAMETER_VALUE(3.0)),.T.,.UNSPECIFIED.);
#222=DRAUGHTING_PRE_DEFINED_CURVE_FONT('continuous');
#223=COLOUR_RGB('',0.0,0.0,1.0);
#224=TRIMMED_CURVE('',#289,(PARAMETER_VALUE(0.0)),(PARAMETER_VALUE(27.7)),.T.,.UNSPECIFIED.);
#225=DRAUGHTING_PRE_DEFINED_CURVE_FONT('continuous');
#226=COLOUR_RGB('',0.0,0.0,1.0);
#227=TRIMMED_CURVE('',#290,(PARAMETER_VALUE(0.0)),(PARAMETER_VALUE(28.0)),.T.,.UNSPECIFIED.);
#228=DRAUGHTING_PRE_DEFINED_CURVE_FONT('continuous');
#229=COLOUR_RGB('',0.498039215803146,0.498039215803146,0.498039215803146);
#230=TRIMMED_CURVE('',#291,(PARAMETER_VALUE(0.0)),(PARAMETER_VALUE(38.0)),.T.,.UNSPECIFIED.);
#231=DRAUGHTING_PRE_DEFINED_CURVE_FONT('continuous');
#232=COLOUR_RGB('',0.498039215803146,0.498039215803146,0.498039215803146);
#233=TRIMMED_CURVE('',#292,(PARAMETER_VALUE(0.0)),(PARAMETER_VALUE(1.7)),.T.,.UNSPECIFIED.);
#234=DRAUGHTING_PRE_DEFINED_CURVE_FONT('continuous');
#235=COLOUR_RGB('',0.498039215803146,0.498039215803146,0.498039215803146);
#236=TRIMMED_CURVE('',#293,(PARAMETER_VALUE(0.0)),(PARAMETER_VALUE(1.83847763108502)),.T.,.UNSPECIFIED.);
#237=DRAUGHTING_PRE_DEFINED_CURVE_FONT('continuous');
#238=COLOUR_RGB('',0.498039215803146,0.498039215803146,0.498039215803146);
#239=TRIMMED_CURVE('',#294,(PARAMETER_VALUE(0.0)),(PARAMETER_VALUE(34.7)),.T.,.UNSPECIFIED.);
#240=DRAUGHTING_PRE_DEFINED_CURVE_FONT('continuous');
#241=COLOUR_RGB('',0.498039215803146,0.498039215803146,0.498039215803146);
#242=TRIMMED_CURVE('',#295,(PARAMETER_VALUE(0.0)),(PARAMETER_VALUE(1.2E-05)),.T.,.UNSPECIFIED.);
#243=DRAUGHTING_PRE_DEFINED_CURVE_FONT('continuous');
#244=COLOUR_RGB('',0.0,1.0,0.0);
#245=TRIMMED_CURVE('',#296,(PARAMETER_VALUE(0.0)),(PARAMETER_VALUE(3.0)),.T.,.UNSPECIFIED.);
#246=SURFACE_SIDE_STYLE('',(#297));
#247=EDGE_LOOP('',(#298,#299,#300,#301));
#248=AXIS2_PLACEMENT_3D('',#302,#303,#304);
#249=SURFACE_SIDE_STYLE('',(#305));
#250=EDGE_LOOP('',(#306,#307,#308,#309));
#251=AXIS2_PLACEMENT_3D('',#310,#311,#312);
#252=SURFACE_SIDE_STYLE('',(#313));
#253=EDGE_LOOP('',(#314,#315,#316,#317));
#254=AXIS2_PLACEMENT_3D('',#318,#319,#320);
#255=SURFACE_SIDE_STYLE('',(#321));
#256=EDGE_LOOP('',(#322,#323,#324,#325));
#257=AXIS2_PLACEMENT_3D('',#326,#327,#328);
#258=SURFACE_SIDE_STYLE('',(#329));
#259=EDGE_LOOP('',(#330,#331));
#260=AXIS2_PLACEMENT_3D('',#332,#333,#334);
#261=SURFACE_SIDE_STYLE('',(#335));
#262=EDGE_LOOP('',(#336,#337));
#263=AXIS2_PLACEMENT_3D('',#338,#339,#340);
#264=SURFACE_SIDE_STYLE('',(#341));
#265=EDGE_LOOP('',(#342,#343,#344,#345));
#266=AXIS2_PLACEMENT_3D('',#346,#347,#348);
#267=SURFACE_SIDE_STYLE('',(#349));
#268=EDGE_LOOP('',(#350,#351,#352,#353));
#269=AXIS2_PLACEMENT_3D('',#354,#355,#356);
#270=SURFACE_SIDE_STYLE('',(#357));
#271=EDGE_LOOP('',(#358,#359));
#272=AXIS2_PLACEMENT_3D('',#360,#361,#362);
#273=SURFACE_SIDE_STYLE('',(#363));
#274=EDGE_LOOP('',(#364,#365,#366,#367));
#275=AXIS2_PLACEMENT_3D('',#368,#369,#370);
#276=SURFACE_SIDE_STYLE('',(#371));
#277=EDGE_LOOP('',(#372,#373,#374,#375));
#278=AXIS2_PLACEMENT_3D('',#376,#377,#378);
#279=SURFACE_SIDE_STYLE('',(#379));
#280=EDGE_LOOP('',(#380,#381));
#281=AXIS2_PLACEMENT_3D('',#382,#383,#384);
#283=LINE('',#385,#386);
#284=LINE('',#387,#388);
#285=LINE('',#389,#390);
#286=LINE('',#391,#392);
#287=LINE('',#393,#394);
#288=LINE('',#395,#396);
#289=LINE('',#397,#398);
#290=LINE('',#399,#400);
#291=LINE('',#401,#402);
#292=LINE('',#403,#404);
#293=LINE('',#405,#406);
#294=LINE('',#407,#408);
#295=LINE('',#409,#410);
#296=LINE('',#411,#412);
#297=SURFACE_STYLE_FILL_AREA(#413);
#298=ORIENTED_EDGE('',*,*,#414,.F.);
#299=ORIENTED_EDGE('',*,*,#415,.T.);
#300=ORIENTED_EDGE('',*,*,#416,.F.);
#301=ORIENTED_EDGE('',*,*,#417,.F.);
#302=CARTESIAN_POINT('',(1.82778534772742E-15,0.0,-29.85));
#303=DIRECTION('',(-6.12323399573677E-17,-0.0,1.0));
#304=DIRECTION('',(0.0,1.0,0.0));
#305=SURFACE_STYLE_FILL_AREA(#418);
#306=ORIENTED_EDGE('',*,*,#419,.F.);
#307=ORIENTED_EDGE('',*,*,#420,.T.);
#308=ORIENTED_EDGE('',*,*,#421,.F.);
#309=ORIENTED_EDGE('',*,*,#415,.F.);
#310=CARTESIAN_POINT('',(9.70532588324278E-16,0.0,-15.85));
#311=DIRECTION('',(6.12323399573676E-17,0.0,-1.0));
#312=DIRECTION('',(0.0,1.0,0.0));
#313=SURFACE_STYLE_FILL_AREA(#422);
#314=ORIENTED_EDGE('',*,*,#419,.T.);
#315=ORIENTED_EDGE('',*,*,#423,.F.);
#316=ORIENTED_EDGE('',*,*,#421,.T.);
#317=ORIENTED_EDGE('',*,*,#424,.T.);
#318=CARTESIAN_POINT('',(9.70532588324278E-16,0.0,-15.85));
#319=DIRECTION('',(6.12323399573676E-17,0.0,-1.0));
#320=DIRECTION('',(0.0,1.0,0.0));
#321=SURFACE_STYLE_FILL_AREA(#425);
#322=ORIENTED_EDGE('',*,*,#414,.T.);
#323=ORIENTED_EDGE('',*,*,#426,.F.);
#324=ORIENTED_EDGE('',*,*,#416,.T.);
#325=ORIENTED_EDGE('',*,*,#423,.T.);
#326=CARTESIAN_POINT('',(1.82778534772742E-15,0.0,-29.85));
#327=DIRECTION('',(-6.12323399573677E-17,-0.0,1.0));
#328=DIRECTION('',(0.0,1.0,0.0));
#329=SURFACE_STYLE_FILL_AREA(#427);
#330=ORIENTED_EDGE('',*,*,#417,.T.);
#331=ORIENTED_EDGE('',*,*,#426,.T.);
#332=CARTESIAN_POINT('',(1.83697019872103E-15,1.41339745962156,-30.0));
#333=DIRECTION('',(6.12323399573677E-17,0.0,-1.0));
#334=DIRECTION('',(0.0,1.0,0.0));
#335=SURFACE_STYLE_FILL_AREA(#428);
#336=ORIENTED_EDGE('',*,*,#420,.F.);
#337=ORIENTED_EDGE('',*,*,#424,.F.);
#338=CARTESIAN_POINT('',(1.22464679914735E-16,1.5,-2.0));
#339=DIRECTION('',(-6.12323399573677E-17,0.0,1.0));
#340=DIRECTION('',(0.0,-1.0,0.0));
#341=SURFACE_STYLE_FILL_AREA(#429);
#342=ORIENTED_EDGE('',*,*,#430,.F.);
#343=ORIENTED_EDGE('',*,*,#431,.T.);
#344=ORIENTED_EDGE('',*,*,#432,.F.);
#345=ORIENTED_EDGE('',*,*,#433,.F.);
#346=CARTESIAN_POINT('',(-1.00114875830296E-15,0.0,16.35));
#347=DIRECTION('',(6.12323399573676E-17,0.0,-1.0));
#348=DIRECTION('',(0.0,1.0,0.0));
#349=SURFACE_STYLE_FILL_AREA(#434);
#350=ORIENTED_EDGE('',*,*,#435,.F.);
#351=ORIENTED_EDGE('',*,*,#436,.T.);
#352=ORIENTED_EDGE('',*,*,#437,.F.);
#353=ORIENTED_EDGE('',*,*,#431,.F.);
#354=CARTESIAN_POINT('',(-2.16456321749295E-15,0.0,35.35));
#355=DIRECTION('',(6.12323399573677E-17,-0.0,-1.0));
#356=DIRECTION('',(0.0,1.0,0.0));
#357=SURFACE_STYLE_FILL_AREA(#438);
#358=ORIENTED_EDGE('',*,*,#436,.F.);
#359=ORIENTED_EDGE('',*,*,#439,.F.);
#360=CARTESIAN_POINT('',(-2.20436423846524E-15,0.85,36.0));
#361=DIRECTION('',(-6.12323399573677E-17,0.0,1.0));
#362=DIRECTION('',(0.0,-1.0,0.0));
#363=SURFACE_STYLE_FILL_AREA(#440);
#364=ORIENTED_EDGE('',*,*,#435,.T.);
#365=ORIENTED_EDGE('',*,*,#441,.F.);
#366=ORIENTED_EDGE('',*,*,#437,.T.);
#367=ORIENTED_EDGE('',*,*,#439,.T.);
#368=CARTESIAN_POINT('',(-2.16456321749295E-15,0.0,35.35));
#369=DIRECTION('',(6.12323399573677E-17,-0.0,-1.0));
#370=DIRECTION('',(0.0,1.0,0.0));
#371=SURFACE_STYLE_FILL_AREA(#442);
#372=ORIENTED_EDGE('',*,*,#430,.T.);
#373=ORIENTED_EDGE('',*,*,#443,.F.);
#374=ORIENTED_EDGE('',*,*,#432,.T.);
#375=ORIENTED_EDGE('',*,*,#441,.T.);
#376=CARTESIAN_POINT('',(-1.00114875830296E-15,0.0,16.35));
#377=DIRECTION('',(6.12323399573676E-17,0.0,-1.0));
#378=DIRECTION('',(0.0,1.0,0.0));
#379=SURFACE_STYLE_FILL_AREA(#444);
#380=ORIENTED_EDGE('',*,*,#433,.T.);
#381=ORIENTED_EDGE('',*,*,#443,.T.);
#382=CARTESIAN_POINT('',(1.22464679914735E-16,1.5,-2.0));
#383=DIRECTION('',(6.12323399573677E-17,0.0,-1.0));
#384=DIRECTION('',(0.0,1.0,0.0));
#385=CARTESIAN_POINT('',(1.83697019872103E-15,0.0,-30.0));
#386=VECTOR('',#445,1.0);
#387=CARTESIAN_POINT('',(1.83697019872103E-15,2.82679491924311,-30.0));
#388=VECTOR('',#446,1.0);
#389=CARTESIAN_POINT('',(1.83697019872103E-15,0.0,-30.0));
#390=VECTOR('',#447,1.0);
#391=CARTESIAN_POINT('',(0.0,3.0,0.0));
#392=VECTOR('',#448,1.0);
#393=CARTESIAN_POINT('',(1.22464679914735E-16,3.0,-2.0));
#394=VECTOR('',#449,1.0);
#395=CARTESIAN_POINT('',(1.22464679914735E-16,3.0,-2.0));
#396=VECTOR('',#450,1.0);
#397=CARTESIAN_POINT('',(1.22464679914735E-16,3.0,-2.0));
#398=VECTOR('',#451,1.0);
#399=CARTESIAN_POINT('',(1.22464679914735E-16,0.0,-2.0));
#400=VECTOR('',#452,1.0);
#401=CARTESIAN_POINT('',(1.22464679914735E-16,0.0,-2.0));
#402=VECTOR('',#453,1.0);
#403=CARTESIAN_POINT('',(-2.20436423846524E-15,0.0,36.0));
#404=VECTOR('',#454,1.0);
#405=CARTESIAN_POINT('',(-2.20436423846524E-15,1.7,36.0));
#406=VECTOR('',#455,1.0);
#407=CARTESIAN_POINT('',(-2.12476219652066E-15,3.0,34.7));
#408=VECTOR('',#456,1.0);
#409=CARTESIAN_POINT('',(-6.0E-06,3.0,0.0));
#410=VECTOR('',#457,1.0);
#411=CARTESIAN_POINT('',(0.0,3.0,0.0));
#412=VECTOR('',#458,1.0);
#413=FILL_AREA_STYLE('',(#459));
#414=EDGE_CURVE('',#460,#461,#462,.T.);
#415=EDGE_CURVE('',#460,#463,#464,.T.);
#416=EDGE_CURVE('',#465,#463,#466,.T.);
#417=EDGE_CURVE('',#461,#465,#467,.T.);
#418=FILL_AREA_STYLE('',(#468));
#419=EDGE_CURVE('',#469,#460,#470,.T.);
#420=EDGE_CURVE('',#469,#471,#472,.T.);
#421=EDGE_CURVE('',#463,#471,#473,.T.);
#422=FILL_AREA_STYLE('',(#474));
#423=EDGE_CURVE('',#463,#460,#475,.T.);
#424=EDGE_CURVE('',#471,#469,#476,.T.);
#425=FILL_AREA_STYLE('',(#477));
#426=EDGE_CURVE('',#465,#461,#478,.T.);
#427=FILL_AREA_STYLE('',(#479));
#428=FILL_AREA_STYLE('',(#480));
#429=FILL_AREA_STYLE('',(#481));
#430=EDGE_CURVE('',#482,#483,#484,.T.);
#431=EDGE_CURVE('',#482,#485,#486,.T.);
#432=EDGE_CURVE('',#487,#485,#488,.T.);
#433=EDGE_CURVE('',#483,#487,#489,.T.);
#434=FILL_AREA_STYLE('',(#490));
#435=EDGE_CURVE('',#491,#482,#492,.T.);
#436=EDGE_CURVE('',#491,#493,#494,.T.);
#437=EDGE_CURVE('',#485,#493,#495,.T.);
#438=FILL_AREA_STYLE('',(#496));
#439=EDGE_CURVE('',#493,#491,#497,.T.);
#440=FILL_AREA_STYLE('',(#498));
#441=EDGE_CURVE('',#485,#482,#499,.T.);
#442=FILL_AREA_STYLE('',(#500));
#443=EDGE_CURVE('',#487,#483,#501,.T.);
#444=FILL_AREA_STYLE('',(#502));
#445=DIRECTION('',(0.0,1.0,0.0));
#446=DIRECTION('',(-5.30287619362461E-17,0.500000000000003,0.866025403784437));
#447=DIRECTION('',(0.0,-1.0,0.0));
#448=DIRECTION('',(6.12323399573677E-17,0.0,-1.0));
#449=DIRECTION('',(0.0,-1.0,0.0));
#450=DIRECTION('',(0.0,-1.0,0.0));
#451=DIRECTION('',(6.12323399573677E-17,0.0,-1.0));
#452=DIRECTION('',(6.12323399573677E-17,0.0,-1.0));
#453=DIRECTION('',(-6.12323399573677E-17,0.0,1.0));
#454=DIRECTION('',(0.0,1.0,0.0));
#455=DIRECTION('',(4.32978028117747E-17,0.707106781186548,-0.707106781186547));
#456=DIRECTION('',(6.12323399573677E-17,0.0,-1.0));
#457=DIRECTION('',(1.0,0.0,0.0));
#458=DIRECTION('',(0.0,-1.0,0.0));
#459=FILL_AREA_STYLE_COLOUR('',#503);
#460=VERTEX_POINT('',#504);
#461=VERTEX_POINT('',#505);
#462=LINE('',#506,#507);
#463=VERTEX_POINT('',#508);
#464=CIRCLE('',#509,3.0);
#465=VERTEX_POINT('',#510);
#466=LINE('',#511,#512);
#467=CIRCLE('',#513,2.82679491924311);
#468=FILL_AREA_STYLE_COLOUR('',#514);
#469=VERTEX_POINT('',#515);
#470=LINE('',#516,#517);
#471=VERTEX_POINT('',#518);
#472=CIRCLE('',#519,3.0);
#473=LINE('',#520,#521);
#474=FILL_AREA_STYLE_COLOUR('',#522);
#475=CIRCLE('',#523,3.0);
#476=CIRCLE('',#524,3.0);
#477=FILL_AREA_STYLE_COLOUR('',#525);
#478=CIRCLE('',#526,2.82679491924311);
#479=FILL_AREA_STYLE_COLOUR('',#527);
#480=FILL_AREA_STYLE_COLOUR('',#528);
#481=FILL_AREA_STYLE_COLOUR('',#529);
#482=VERTEX_POINT('',#530);
#483=VERTEX_POINT('',#531);
#484=LINE('',#532,#533);
#485=VERTEX_POINT('',#534);
#486=CIRCLE('',#535,3.0);
#487=VERTEX_POINT('',#536);
#488=LINE('',#537,#538);
#489=CIRCLE('',#539,3.0);
#490=FILL_AREA_STYLE_COLOUR('',#540);
#491=VERTEX_POINT('',#541);
#492=LINE('',#542,#543);
#493=VERTEX_POINT('',#544);
#494=CIRCLE('',#545,1.7);
#495=LINE('',#546,#547);
#496=FILL_AREA_STYLE_COLOUR('',#548);
#497=CIRCLE('',#549,1.7);
#498=FILL_AREA_STYLE_COLOUR('',#550);
#499=CIRCLE('',#551,3.0);
#500=FILL_AREA_STYLE_COLOUR('',#552);
#501=CIRCLE('',#553,3.0);
#502=FILL_AREA_STYLE_COLOUR('',#554);
#503=COLOUR_RGB('',0.800000011920929,0.800000011920929,0.800000011920929);
#504=CARTESIAN_POINT('',(1.81860049673382E-15,3.0,-29.7));
#505=CARTESIAN_POINT('',(1.83697019872103E-15,2.82679491924311,-30.0));
#506=CARTESIAN_POINT('',(1.47099706037047E-15,2.91339745962156,-29.85));
#507=VECTOR('',#555,1.0);
#508=CARTESIAN_POINT('',(2.18599453647803E-15,-3.0,-29.7));
#509=AXIS2_PLACEMENT_3D('',#556,#557,#558);
#510=CARTESIAN_POINT('',(2.18315273369074E-15,-2.82679491924311,-30.0));
#511=CARTESIAN_POINT('',(2.18457363508438E-15,-2.91339745962156,-29.85));
#512=VECTOR('',#559,1.0);
#513=AXIS2_PLACEMENT_3D('',#560,#561,#562);
#514=COLOUR_RGB('',0.800000011920929,0.800000011920929,0.800000011920929);
#515=CARTESIAN_POINT('',(1.22464679914735E-16,3.0,-2.0));
#516=CARTESIAN_POINT('',(6.03138548580072E-16,3.0,-15.85));
#517=VECTOR('',#563,1.0);
#518=CARTESIAN_POINT('',(4.89858719658941E-16,-3.0,-2.0));
#519=AXIS2_PLACEMENT_3D('',#564,#565,#566);
#520=CARTESIAN_POINT('',(1.33792662806848E-15,-3.0,-15.85));
#521=VECTOR('',#567,1.0);
#522=COLOUR_RGB('',0.800000011920929,0.800000011920929,0.800000011920929);
#523=AXIS2_PLACEMENT_3D('',#568,#569,#570);
#524=AXIS2_PLACEMENT_3D('',#571,#572,#573);
#525=COLOUR_RGB('',0.800000011920929,0.800000011920929,0.800000011920929);
#526=AXIS2_PLACEMENT_3D('',#574,#575,#576);
#527=COLOUR_RGB('',0.800000011920929,0.800000011920929,0.800000011920929);
#528=COLOUR_RGB('',0.800000011920929,0.800000011920929,0.800000011920929);
#529=COLOUR_RGB('',0.498039215803146,0.498039215803146,0.498039215803146);
#530=CARTESIAN_POINT('',(-2.12476219652066E-15,3.0,34.7));
#531=CARTESIAN_POINT('',(1.22464679914735E-16,3.0,-2.0));
#532=CARTESIAN_POINT('',(-1.36854279804717E-15,3.0,16.35));
#533=VECTOR('',#577,1.0);
#534=CARTESIAN_POINT('',(-1.75736815677645E-15,-3.0,34.7));
#535=AXIS2_PLACEMENT_3D('',#578,#579,#580);
#536=CARTESIAN_POINT('',(4.89858719658941E-16,-3.0,-2.0));
#537=CARTESIAN_POINT('',(-6.33754718558755E-16,-3.0,16.35));
#538=VECTOR('',#581,1.0);
#539=AXIS2_PLACEMENT_3D('',#582,#583,#584);
#540=COLOUR_RGB('',0.498039215803146,0.498039215803146,0.498039215803146);
#541=CARTESIAN_POINT('',(-2.20436423846524E-15,1.7,36.0));
#542=CARTESIAN_POINT('',(-2.45235521529257E-15,2.35,35.35));
#543=VECTOR('',#585,1.0);
#544=CARTESIAN_POINT('',(-1.99617428261019E-15,-1.7,36.0));
#545=AXIS2_PLACEMENT_3D('',#586,#587,#588);
#546=CARTESIAN_POINT('',(-1.87677121969332E-15,-2.35,35.35));
#547=VECTOR('',#589,1.0);
#548=COLOUR_RGB('',0.498039215803146,0.498039215803146,0.498039215803146);
#549=AXIS2_PLACEMENT_3D('',#590,#591,#592);
#550=COLOUR_RGB('',0.498039215803146,0.498039215803146,0.498039215803146);
#551=AXIS2_PLACEMENT_3D('',#593,#594,#595);
#552=COLOUR_RGB('',0.498039215803146,0.498039215803146,0.498039215803146);
#553=AXIS2_PLACEMENT_3D('',#596,#597,#598);
#554=COLOUR_RGB('',0.498039215803146,0.498039215803146,0.498039215803146);
#555=DIRECTION('',(1.14261101893613E-16,-0.500000000000003,-0.866025403784437));
#556=CARTESIAN_POINT('',(1.81860049673382E-15,0.0,-29.7));
#557=DIRECTION('',(6.12323399573676E-17,0.0,-1.0));
#558=DIRECTION('',(0.0,1.0,0.0));
#559=DIRECTION('',(8.20357802112294E-18,-0.500000000000003,0.866025403784437));
#560=CARTESIAN_POINT('',(1.83697019872103E-15,0.0,-30.0));
#561=DIRECTION('',(6.12323399573677E-17,0.0,-1.0));
#562=DIRECTION('',(0.0,1.0,0.0));
#563=DIRECTION('',(6.12323399573676E-17,0.0,-1.0));
#564=CARTESIAN_POINT('',(1.22464679914735E-16,0.0,-2.0));
#565=DIRECTION('',(6.12323399573676E-17,0.0,-1.0));
#566=DIRECTION('',(0.0,1.0,0.0));
#567=DIRECTION('',(-6.12323399573676E-17,-0.0,1.0));
#568=CARTESIAN_POINT('',(1.81860049673382E-15,0.0,-29.7));
#569=DIRECTION('',(6.12323399573676E-17,0.0,-1.0));
#570=DIRECTION('',(0.0,1.0,0.0));
#571=CARTESIAN_POINT('',(1.22464679914735E-16,0.0,-2.0));
#572=DIRECTION('',(6.12323399573676E-17,0.0,-1.0));
#573=DIRECTION('',(0.0,1.0,0.0));
#574=CARTESIAN_POINT('',(1.83697019872103E-15,0.0,-30.0));
#575=DIRECTION('',(6.12323399573677E-17,0.0,-1.0));
#576=DIRECTION('',(0.0,1.0,0.0));
#577=DIRECTION('',(6.12323399573676E-17,0.0,-1.0));
#578=CARTESIAN_POINT('',(-2.12476219652066E-15,0.0,34.7));
#579=DIRECTION('',(6.12323399573676E-17,0.0,-1.0));
#580=DIRECTION('',(0.0,1.0,0.0));
#581=DIRECTION('',(-6.12323399573676E-17,-0.0,1.0));
#582=CARTESIAN_POINT('',(1.22464679914735E-16,0.0,-2.0));
#583=DIRECTION('',(6.12323399573676E-17,0.0,-1.0));
#584=DIRECTION('',(0.0,1.0,0.0));
#585=DIRECTION('',(-4.32978028117746E-17,0.707106781186547,-0.707106781186548));
#586=CARTESIAN_POINT('',(-2.20436423846524E-15,0.0,36.0));
#587=DIRECTION('',(6.12323399573677E-17,0.0,-1.0));
#588=DIRECTION('',(0.0,1.0,0.0));
#589=DIRECTION('',(-1.29893408435324E-16,0.707106781186547,0.707106781186548));
#590=CARTESIAN_POINT('',(-2.20436423846524E-15,0.0,36.0));
#591=DIRECTION('',(6.12323399573677E-17,0.0,-1.0));
#592=DIRECTION('',(0.0,1.0,0.0));
#593=CARTESIAN_POINT('',(-2.12476219652066E-15,0.0,34.7));
#594=DIRECTION('',(6.12323399573676E-17,0.0,-1.0));
#595=DIRECTION('',(0.0,1.0,0.0));
#596=CARTESIAN_POINT('',(1.22464679914735E-16,0.0,-2.0));
#597=DIRECTION('',(6.12323399573676E-17,0.0,-1.0));
#598=DIRECTION('',(0.0,1.0,0.0));
#599=DIRECTION('',(0.0,0.0,1.0));
#600=DIRECTION('',(1.0,0.0,0.0));
#601=CARTESIAN_POINT('',(0.0,0.0,36.000000));
#602=AXIS2_PLACEMENT_3D('PCS', #601,#599,#600);
#603=CARTESIAN_POINT('',(0.0,0.0,0.000000));
#604=AXIS2_PLACEMENT_3D('MCS', #603,#599,#600);
#605=CARTESIAN_POINT('',(0.0,0.0,-30.000000));
#606=AXIS2_PLACEMENT_3D('CIP', #605,#599,#600);
ENDSEC;
END-ISO-10303-21;
