ISO-10303-21;
HEADER;
FILE_DESCRIPTION(('STEP AP214'),'1');
FILE_NAME('607884587-000-00-E43.stp','2022-12-30T07:05:06',(' '),(' '),'Spatial InterOp 3D',' ',' ');
FILE_SCHEMA(('AUTOMOTIVE_DESIGN { 1 0 10303 214 1 1 1 1 }'));
ENDSEC;
DATA;
#1=MECHANICAL_DESIGN_GEOMETRIC_PRESENTATION_REPRESENTATION(' ',(#12,#13,#14,#15,#16,#17,#18,#19,#20,#21,#22,#23,#24,#25,#26,#27,#28,#29,#30,#31,#32,#33,#34,#35,#36),#8);
#2=PRODUCT_DEFINITION_CONTEXT('',#37,'design');
#3=APPLICATION_PROTOCOL_DEFINITION('INTERNATIONAL STANDARD','automotive_design',1994,#37);
#4=PRODUCT_CATEGORY_RELATIONSHIP('NONE','NONE',#38,#39);
#5=SHAPE_DEFINITION_REPRESENTATION(#40,#41);
#6=SHAPE_DEFINITION_REPRESENTATION(#40,#42);
#7=SHAPE_DEFINITION_REPRESENTATION(#40,#43);
#8= (GEOMETRIC_REPRESENTATION_CONTEXT(3)GLOBAL_UNCERTAINTY_ASSIGNED_CONTEXT((#46))GLOBAL_UNIT_ASSIGNED_CONTEXT((#48,#49,#50))REPRESENTATION_CONTEXT('NONE','WORKSPACE'));
#12=STYLED_ITEM('',(#52),#53);
#13=STYLED_ITEM('',(#54),#55);
#14=STYLED_ITEM('',(#56),#57);
#15=STYLED_ITEM('',(#58),#59);
#16=STYLED_ITEM('',(#60),#61);
#17=STYLED_ITEM('',(#62),#63);
#18=STYLED_ITEM('',(#64),#65);
#19=STYLED_ITEM('',(#66),#67);
#20=STYLED_ITEM('',(#68),#69);
#21=STYLED_ITEM('',(#70),#71);
#22=STYLED_ITEM('',(#72),#73);
#23=STYLED_ITEM('',(#74),#75);
#24=STYLED_ITEM('',(#76),#77);
#25=STYLED_ITEM('',(#78),#79);
#26=STYLED_ITEM('',(#80),#81);
#27=STYLED_ITEM('',(#82),#83);
#28=STYLED_ITEM('',(#84),#85);
#29=STYLED_ITEM('',(#86),#87);
#30=STYLED_ITEM('',(#88),#89);
#31=STYLED_ITEM('',(#90),#91);
#32=STYLED_ITEM('',(#92),#93);
#33=STYLED_ITEM('',(#94),#95);
#34=STYLED_ITEM('',(#96),#97);
#35=STYLED_ITEM('',(#98),#99);
#36=STYLED_ITEM('',(#100),#101);
#37=APPLICATION_CONTEXT(' ');
#38=PRODUCT_CATEGORY('part','NONE');
#39=PRODUCT_RELATED_PRODUCT_CATEGORY('detail',' ',(#102));
#40=PRODUCT_DEFINITION_SHAPE('NONE','NONE',#103);
#41=ADVANCED_BREP_SHAPE_REPRESENTATION('1',(#104,#105),#8);
#42=ADVANCED_BREP_SHAPE_REPRESENTATION('2',(#106,#107),#8);
#43=GEOMETRICALLY_BOUNDED_SURFACE_SHAPE_REPRESENTATION('3',(#108,#109),#8);
#46=UNCERTAINTY_MEASURE_WITH_UNIT(LENGTH_MEASURE(1.0E-06),#48,'','');
#48= (CONVERSION_BASED_UNIT('MILLIMETRE',#112)LENGTH_UNIT()NAMED_UNIT(#115));
#49= (NAMED_UNIT(#117)PLANE_ANGLE_UNIT()SI_UNIT($,.RADIAN.));
#50= (NAMED_UNIT(#117)SOLID_ANGLE_UNIT()SI_UNIT($,.STERADIAN.));
#52=PRESENTATION_STYLE_ASSIGNMENT((#123));
#53=COMPOSITE_CURVE('',(#124),.U.);
#54=PRESENTATION_STYLE_ASSIGNMENT((#125));
#55=COMPOSITE_CURVE('',(#126),.U.);
#56=PRESENTATION_STYLE_ASSIGNMENT((#127));
#57=COMPOSITE_CURVE('',(#128),.U.);
#58=PRESENTATION_STYLE_ASSIGNMENT((#129));
#59=COMPOSITE_CURVE('',(#130),.U.);
#60=PRESENTATION_STYLE_ASSIGNMENT((#131));
#61=COMPOSITE_CURVE('',(#132),.U.);
#62=PRESENTATION_STYLE_ASSIGNMENT((#133));
#63=COMPOSITE_CURVE('',(#134),.U.);
#64=PRESENTATION_STYLE_ASSIGNMENT((#135));
#65=COMPOSITE_CURVE('',(#136),.U.);
#66=PRESENTATION_STYLE_ASSIGNMENT((#137));
#67=COMPOSITE_CURVE('',(#138),.U.);
#68=PRESENTATION_STYLE_ASSIGNMENT((#139));
#69=COMPOSITE_CURVE('',(#140),.U.);
#70=PRESENTATION_STYLE_ASSIGNMENT((#141));
#71=COMPOSITE_CURVE('',(#142),.U.);
#72=PRESENTATION_STYLE_ASSIGNMENT((#143));
#73=COMPOSITE_CURVE('',(#144),.U.);
#74=PRESENTATION_STYLE_ASSIGNMENT((#145));
#75=COMPOSITE_CURVE('',(#146),.U.);
#76=PRESENTATION_STYLE_ASSIGNMENT((#147));
#77=COMPOSITE_CURVE('',(#148),.U.);
#78=PRESENTATION_STYLE_ASSIGNMENT((#149));
#79=ADVANCED_FACE('',(#150),#151,.T.);
#80=PRESENTATION_STYLE_ASSIGNMENT((#152));
#81=ADVANCED_FACE('',(#153),#154,.T.);
#82=PRESENTATION_STYLE_ASSIGNMENT((#155));
#83=ADVANCED_FACE('',(#156),#157,.T.);
#84=PRESENTATION_STYLE_ASSIGNMENT((#158));
#85=ADVANCED_FACE('',(#159),#160,.T.);
#86=PRESENTATION_STYLE_ASSIGNMENT((#161));
#87=ADVANCED_FACE('',(#162),#163,.T.);
#88=PRESENTATION_STYLE_ASSIGNMENT((#164));
#89=ADVANCED_FACE('',(#165),#166,.T.);
#90=PRESENTATION_STYLE_ASSIGNMENT((#167));
#91=ADVANCED_FACE('',(#168),#169,.T.);
#92=PRESENTATION_STYLE_ASSIGNMENT((#170));
#93=ADVANCED_FACE('',(#171),#172,.T.);
#94=PRESENTATION_STYLE_ASSIGNMENT((#173));
#95=ADVANCED_FACE('',(#174),#175,.T.);
#96=PRESENTATION_STYLE_ASSIGNMENT((#176));
#97=ADVANCED_FACE('',(#177),#178,.T.);
#98=PRESENTATION_STYLE_ASSIGNMENT((#179));
#99=ADVANCED_FACE('',(#180),#181,.T.);
#100=PRESENTATION_STYLE_ASSIGNMENT((#182));
#101=ADVANCED_FACE('',(#183),#184,.T.);
#102=PRODUCT('1','','PART--DESC',(#185));
#103=PRODUCT_DEFINITION('','NONE',#186,#2);
#104=MANIFOLD_SOLID_BREP('1',#187);
#105=AXIS2_PLACEMENT_3D('',#188,#189,#190);
#106=MANIFOLD_SOLID_BREP('2',#191);
#107=AXIS2_PLACEMENT_3D('',#192,#193,#194);
#108=GEOMETRIC_SET('3',(#53,#55,#57,#59,#61,#63,#65,#67,#69,#71,#73,#75,#77));
#109=AXIS2_PLACEMENT_3D('',#195,#196,#197);
#112=LENGTH_MEASURE_WITH_UNIT(LENGTH_MEASURE(1.0),#198);
#115=DIMENSIONAL_EXPONENTS(1.0,0.0,0.0,0.0,0.0,0.0,0.0);
#117=DIMENSIONAL_EXPONENTS(0.0,0.0,0.0,0.0,0.0,0.0,0.0);
#123=CURVE_STYLE('',#199,POSITIVE_LENGTH_MEASURE(1.0E-06),#200);
#124=COMPOSITE_CURVE_SEGMENT(.CONTINUOUS.,.T.,#201);
#125=CURVE_STYLE('',#202,POSITIVE_LENGTH_MEASURE(1.0E-06),#203);
#126=COMPOSITE_CURVE_SEGMENT(.CONTINUOUS.,.T.,#204);
#127=CURVE_STYLE('',#205,POSITIVE_LENGTH_MEASURE(1.0E-06),#206);
#128=COMPOSITE_CURVE_SEGMENT(.CONTINUOUS.,.T.,#207);
#129=CURVE_STYLE('',#208,POSITIVE_LENGTH_MEASURE(1.0E-06),#209);
#130=COMPOSITE_CURVE_SEGMENT(.CONTINUOUS.,.T.,#210);
#131=CURVE_STYLE('',#211,POSITIVE_LENGTH_MEASURE(1.0E-06),#212);
#132=COMPOSITE_CURVE_SEGMENT(.CONTINUOUS.,.T.,#213);
#133=CURVE_STYLE('',#214,POSITIVE_LENGTH_MEASURE(1.0E-06),#215);
#134=COMPOSITE_CURVE_SEGMENT(.CONTINUOUS.,.T.,#216);
#135=CURVE_STYLE('',#217,POSITIVE_LENGTH_MEASURE(1.0E-06),#218);
#136=COMPOSITE_CURVE_SEGMENT(.CONTINUOUS.,.T.,#219);
#137=CURVE_STYLE('',#220,POSITIVE_LENGTH_MEASURE(1.0E-06),#221);
#138=COMPOSITE_CURVE_SEGMENT(.CONTINUOUS.,.T.,#222);
#139=CURVE_STYLE('',#223,POSITIVE_LENGTH_MEASURE(1.0E-06),#224);
#140=COMPOSITE_CURVE_SEGMENT(.CONTINUOUS.,.T.,#225);
#141=CURVE_STYLE('',#226,POSITIVE_LENGTH_MEASURE(1.0E-06),#227);
#142=COMPOSITE_CURVE_SEGMENT(.CONTINUOUS.,.T.,#228);
#143=CURVE_STYLE('',#229,POSITIVE_LENGTH_MEASURE(1.0E-06),#230);
#144=COMPOSITE_CURVE_SEGMENT(.CONTINUOUS.,.T.,#231);
#145=CURVE_STYLE('',#232,POSITIVE_LENGTH_MEASURE(1.0E-06),#233);
#146=COMPOSITE_CURVE_SEGMENT(.CONTINUOUS.,.T.,#234);
#147=CURVE_STYLE('',#235,POSITIVE_LENGTH_MEASURE(1.0E-06),#236);
#148=COMPOSITE_CURVE_SEGMENT(.CONTINUOUS.,.T.,#237);
#149=SURFACE_STYLE_USAGE(.BOTH.,#238);
#150=FACE_OUTER_BOUND('',#239,.T.);
#151=CONICAL_SURFACE('',#240,4.85566243270259,0.523598775598299);
#152=SURFACE_STYLE_USAGE(.BOTH.,#241);
#153=FACE_OUTER_BOUND('',#242,.T.);
#154=CYLINDRICAL_SURFACE('',#243,5.0);
#155=SURFACE_STYLE_USAGE(.BOTH.,#244);
#156=FACE_OUTER_BOUND('',#245,.T.);
#157=CYLINDRICAL_SURFACE('',#246,5.0);
#158=SURFACE_STYLE_USAGE(.BOTH.,#247);
#159=FACE_OUTER_BOUND('',#248,.T.);
#160=CONICAL_SURFACE('',#249,4.85566243270259,0.523598775598299);
#161=SURFACE_STYLE_USAGE(.BOTH.,#250);
#162=FACE_OUTER_BOUND('',#251,.T.);
#163=PLANE('',#252);
#164=SURFACE_STYLE_USAGE(.BOTH.,#253);
#165=FACE_OUTER_BOUND('',#254,.T.);
#166=PLANE('',#255);
#167=SURFACE_STYLE_USAGE(.BOTH.,#256);
#168=FACE_OUTER_BOUND('',#257,.T.);
#169=CYLINDRICAL_SURFACE('',#258,5.0);
#170=SURFACE_STYLE_USAGE(.BOTH.,#259);
#171=FACE_OUTER_BOUND('',#260,.T.);
#172=CONICAL_SURFACE('',#261,4.0,0.785398163397448);
#173=SURFACE_STYLE_USAGE(.BOTH.,#262);
#174=FACE_OUTER_BOUND('',#263,.T.);
#175=PLANE('',#264);
#176=SURFACE_STYLE_USAGE(.BOTH.,#265);
#177=FACE_OUTER_BOUND('',#266,.T.);
#178=CONICAL_SURFACE('',#267,4.0,0.785398163397448);
#179=SURFACE_STYLE_USAGE(.BOTH.,#268);
#180=FACE_OUTER_BOUND('',#269,.T.);
#181=CYLINDRICAL_SURFACE('',#270,5.0);
#182=SURFACE_STYLE_USAGE(.BOTH.,#271);
#183=FACE_OUTER_BOUND('',#272,.T.);
#184=PLANE('',#273);
#185=PRODUCT_CONTEXT('',#37,'mechanical');
#186=PRODUCT_DEFINITION_FORMATION_WITH_SPECIFIED_SOURCE(' ','NONE',#102,.NOT_KNOWN.);
#187=CLOSED_SHELL('',(#79,#81,#83,#85,#87,#89));
#188=CARTESIAN_POINT('',(0.0,0.0,0.0));
#189=DIRECTION('',(0.0,0.0,1.0));
#190=DIRECTION('',(1.0,0.0,0.0));
#191=CLOSED_SHELL('',(#91,#93,#95,#97,#99,#101));
#192=CARTESIAN_POINT('',(0.0,0.0,0.0));
#193=DIRECTION('',(0.0,0.0,1.0));
#194=DIRECTION('',(1.0,0.0,0.0));
#195=CARTESIAN_POINT('',(0.0,0.0,0.0));
#196=DIRECTION('',(0.0,0.0,1.0));
#197=DIRECTION('',(1.0,0.0,0.0));
#198= (NAMED_UNIT(#115)LENGTH_UNIT()SI_UNIT(.MILLI.,.METRE.));
#199=DRAUGHTING_PRE_DEFINED_CURVE_FONT('continuous');
#200=COLOUR_RGB('',0.0,0.0,1.0);
#201=TRIMMED_CURVE('',#275,(PARAMETER_VALUE(0.0)),(PARAMETER_VALUE(4.71132486540519)),.T.,.UNSPECIFIED.);
#202=DRAUGHTING_PRE_DEFINED_CURVE_FONT('continuous');
#203=COLOUR_RGB('',0.0,0.0,1.0);
#204=TRIMMED_CURVE('',#276,(PARAMETER_VALUE(0.0)),(PARAMETER_VALUE(0.577350269189626)),.T.,.UNSPECIFIED.);
#205=DRAUGHTING_PRE_DEFINED_CURVE_FONT('continuous');
#206=COLOUR_RGB('',0.0,0.0,1.0);
#207=TRIMMED_CURVE('',#277,(PARAMETER_VALUE(0.0)),(PARAMETER_VALUE(4.71132486540519)),.T.,.UNSPECIFIED.);
#208=DRAUGHTING_PRE_DEFINED_CURVE_FONT('continuous');
#209=COLOUR_RGB('',0.498039215803146,0.498039215803146,0.498039215803146);
#210=TRIMMED_CURVE('',#278,(PARAMETER_VALUE(0.0)),(PARAMETER_VALUE(6.0)),.T.,.UNSPECIFIED.);
#211=DRAUGHTING_PRE_DEFINED_CURVE_FONT('continuous');
#212=COLOUR_RGB('',0.0,0.0,1.0);
#213=TRIMMED_CURVE('',#279,(PARAMETER_VALUE(0.0)),(PARAMETER_VALUE(5.0)),.T.,.UNSPECIFIED.);
#214=DRAUGHTING_PRE_DEFINED_CURVE_FONT('continuous');
#215=COLOUR_RGB('',0.498039215803146,0.498039215803146,0.498039215803146);
#216=TRIMMED_CURVE('',#280,(PARAMETER_VALUE(0.0)),(PARAMETER_VALUE(5.0)),.T.,.UNSPECIFIED.);
#217=DRAUGHTING_PRE_DEFINED_CURVE_FONT('continuous');
#218=COLOUR_RGB('',0.0,0.0,1.0);
#219=TRIMMED_CURVE('',#281,(PARAMETER_VALUE(0.0)),(PARAMETER_VALUE(42.5)),.T.,.UNSPECIFIED.);
#220=DRAUGHTING_PRE_DEFINED_CURVE_FONT('continuous');
#221=COLOUR_RGB('',0.0,0.0,1.0);
#222=TRIMMED_CURVE('',#282,(PARAMETER_VALUE(0.0)),(PARAMETER_VALUE(43.0)),.T.,.UNSPECIFIED.);
#223=DRAUGHTING_PRE_DEFINED_CURVE_FONT('continuous');
#224=COLOUR_RGB('',0.498039215803146,0.498039215803146,0.498039215803146);
#225=TRIMMED_CURVE('',#283,(PARAMETER_VALUE(0.0)),(PARAMETER_VALUE(46.0)),.T.,.UNSPECIFIED.);
#226=DRAUGHTING_PRE_DEFINED_CURVE_FONT('continuous');
#227=COLOUR_RGB('',0.498039215803146,0.498039215803146,0.498039215803146);
#228=TRIMMED_CURVE('',#284,(PARAMETER_VALUE(0.0)),(PARAMETER_VALUE(3.0)),.T.,.UNSPECIFIED.);
#229=DRAUGHTING_PRE_DEFINED_CURVE_FONT('continuous');
#230=COLOUR_RGB('',0.498039215803146,0.498039215803146,0.498039215803146);
#231=TRIMMED_CURVE('',#285,(PARAMETER_VALUE(0.0)),(PARAMETER_VALUE(2.82842712474619)),.T.,.UNSPECIFIED.);
#232=DRAUGHTING_PRE_DEFINED_CURVE_FONT('continuous');
#233=COLOUR_RGB('',0.498039215803146,0.498039215803146,0.498039215803146);
#234=TRIMMED_CURVE('',#286,(PARAMETER_VALUE(0.0)),(PARAMETER_VALUE(38.0)),.T.,.UNSPECIFIED.);
#235=DRAUGHTING_PRE_DEFINED_CURVE_FONT('continuous');
#236=COLOUR_RGB('',0.0,1.0,0.0);
#237=TRIMMED_CURVE('',#287,(PARAMETER_VALUE(0.0)),(PARAMETER_VALUE(5.0)),.T.,.UNSPECIFIED.);
#238=SURFACE_SIDE_STYLE('',(#288));
#239=EDGE_LOOP('',(#289,#290,#291,#292));
#240=AXIS2_PLACEMENT_3D('',#293,#294,#295);
#241=SURFACE_SIDE_STYLE('',(#296));
#242=EDGE_LOOP('',(#297,#298,#299,#300));
#243=AXIS2_PLACEMENT_3D('',#301,#302,#303);
#244=SURFACE_SIDE_STYLE('',(#304));
#245=EDGE_LOOP('',(#305,#306,#307,#308));
#246=AXIS2_PLACEMENT_3D('',#309,#310,#311);
#247=SURFACE_SIDE_STYLE('',(#312));
#248=EDGE_LOOP('',(#313,#314,#315,#316));
#249=AXIS2_PLACEMENT_3D('',#317,#318,#319);
#250=SURFACE_SIDE_STYLE('',(#320));
#251=EDGE_LOOP('',(#321,#322));
#252=AXIS2_PLACEMENT_3D('',#323,#324,#325);
#253=SURFACE_SIDE_STYLE('',(#326));
#254=EDGE_LOOP('',(#327,#328));
#255=AXIS2_PLACEMENT_3D('',#329,#330,#331);
#256=SURFACE_SIDE_STYLE('',(#332));
#257=EDGE_LOOP('',(#333,#334,#335,#336));
#258=AXIS2_PLACEMENT_3D('',#337,#338,#339);
#259=SURFACE_SIDE_STYLE('',(#340));
#260=EDGE_LOOP('',(#341,#342,#343,#344));
#261=AXIS2_PLACEMENT_3D('',#345,#346,#347);
#262=SURFACE_SIDE_STYLE('',(#348));
#263=EDGE_LOOP('',(#349,#350));
#264=AXIS2_PLACEMENT_3D('',#351,#352,#353);
#265=SURFACE_SIDE_STYLE('',(#354));
#266=EDGE_LOOP('',(#355,#356,#357,#358));
#267=AXIS2_PLACEMENT_3D('',#359,#360,#361);
#268=SURFACE_SIDE_STYLE('',(#362));
#269=EDGE_LOOP('',(#363,#364,#365,#366));
#270=AXIS2_PLACEMENT_3D('',#367,#368,#369);
#271=SURFACE_SIDE_STYLE('',(#370));
#272=EDGE_LOOP('',(#371,#372));
#273=AXIS2_PLACEMENT_3D('',#373,#374,#375);
#275=LINE('',#376,#377);
#276=LINE('',#378,#379);
#277=LINE('',#380,#381);
#278=LINE('',#382,#383);
#279=LINE('',#384,#385);
#280=LINE('',#386,#387);
#281=LINE('',#388,#389);
#282=LINE('',#390,#391);
#283=LINE('',#392,#393);
#284=LINE('',#394,#395);
#285=LINE('',#396,#397);
#286=LINE('',#398,#399);
#287=LINE('',#400,#401);
#288=SURFACE_STYLE_FILL_AREA(#402);
#289=ORIENTED_EDGE('',*,*,#403,.F.);
#290=ORIENTED_EDGE('',*,*,#404,.T.);
#291=ORIENTED_EDGE('',*,*,#405,.F.);
#292=ORIENTED_EDGE('',*,*,#406,.F.);
#293=CARTESIAN_POINT('',(2.98507657292167E-15,0.0,-48.75));
#294=DIRECTION('',(-6.12323399573677E-17,-0.0,1.0));
#295=DIRECTION('',(0.0,1.0,0.0));
#296=SURFACE_STYLE_FILL_AREA(#407);
#297=ORIENTED_EDGE('',*,*,#408,.F.);
#298=ORIENTED_EDGE('',*,*,#409,.T.);
#299=ORIENTED_EDGE('',*,*,#410,.F.);
#300=ORIENTED_EDGE('',*,*,#404,.F.);
#301=CARTESIAN_POINT('',(1.66858126383827E-15,0.0,-27.25));
#302=DIRECTION('',(6.12323399573677E-17,0.0,-1.0));
#303=DIRECTION('',(0.0,1.0,0.0));
#304=SURFACE_STYLE_FILL_AREA(#411);
#305=ORIENTED_EDGE('',*,*,#408,.T.);
#306=ORIENTED_EDGE('',*,*,#412,.F.);
#307=ORIENTED_EDGE('',*,*,#410,.T.);
#308=ORIENTED_EDGE('',*,*,#413,.T.);
#309=CARTESIAN_POINT('',(1.66858126383827E-15,0.0,-27.25));
#310=DIRECTION('',(6.12323399573677E-17,0.0,-1.0));
#311=DIRECTION('',(0.0,1.0,0.0));
#312=SURFACE_STYLE_FILL_AREA(#414);
#313=ORIENTED_EDGE('',*,*,#403,.T.);
#314=ORIENTED_EDGE('',*,*,#415,.F.);
#315=ORIENTED_EDGE('',*,*,#405,.T.);
#316=ORIENTED_EDGE('',*,*,#412,.T.);
#317=CARTESIAN_POINT('',(2.98507657292167E-15,0.0,-48.75));
#318=DIRECTION('',(-6.12323399573677E-17,-0.0,1.0));
#319=DIRECTION('',(0.0,1.0,0.0));
#320=SURFACE_STYLE_FILL_AREA(#416);
#321=ORIENTED_EDGE('',*,*,#406,.T.);
#322=ORIENTED_EDGE('',*,*,#415,.T.);
#323=CARTESIAN_POINT('',(3.00038465791102E-15,2.35566243270259,-49.0));
#324=DIRECTION('',(6.12323399573677E-17,0.0,-1.0));
#325=DIRECTION('',(0.0,1.0,0.0));
#326=SURFACE_STYLE_FILL_AREA(#417);
#327=ORIENTED_EDGE('',*,*,#409,.F.);
#328=ORIENTED_EDGE('',*,*,#413,.F.);
#329=CARTESIAN_POINT('',(3.67394039744206E-16,2.5,-6.0));
#330=DIRECTION('',(-6.12323399573677E-17,0.0,1.0));
#331=DIRECTION('',(0.0,-1.0,0.0));
#332=SURFACE_STYLE_FILL_AREA(#418);
#333=ORIENTED_EDGE('',*,*,#419,.F.);
#334=ORIENTED_EDGE('',*,*,#420,.T.);
#335=ORIENTED_EDGE('',*,*,#421,.F.);
#336=ORIENTED_EDGE('',*,*,#422,.F.);
#337=CARTESIAN_POINT('',(-9.79717439317883E-16,0.0,16.0));
#338=DIRECTION('',(6.12323399573677E-17,0.0,-1.0));
#339=DIRECTION('',(0.0,1.0,0.0));
#340=SURFACE_STYLE_FILL_AREA(#423);
#341=ORIENTED_EDGE('',*,*,#424,.F.);
#342=ORIENTED_EDGE('',*,*,#425,.T.);
#343=ORIENTED_EDGE('',*,*,#426,.F.);
#344=ORIENTED_EDGE('',*,*,#420,.F.);
#345=CARTESIAN_POINT('',(-2.38806125833734E-15,0.0,39.0));
#346=DIRECTION('',(6.12323399573677E-17,-0.0,-1.0));
#347=DIRECTION('',(0.0,1.0,0.0));
#348=SURFACE_STYLE_FILL_AREA(#427);
#349=ORIENTED_EDGE('',*,*,#425,.F.);
#350=ORIENTED_EDGE('',*,*,#428,.F.);
#351=CARTESIAN_POINT('',(-2.44929359829471E-15,1.5,40.0));
#352=DIRECTION('',(-6.12323399573677E-17,0.0,1.0));
#353=DIRECTION('',(0.0,-1.0,0.0));
#354=SURFACE_STYLE_FILL_AREA(#429);
#355=ORIENTED_EDGE('',*,*,#424,.T.);
#356=ORIENTED_EDGE('',*,*,#430,.F.);
#357=ORIENTED_EDGE('',*,*,#426,.T.);
#358=ORIENTED_EDGE('',*,*,#428,.T.);
#359=CARTESIAN_POINT('',(-2.38806125833734E-15,0.0,39.0));
#360=DIRECTION('',(6.12323399573677E-17,-0.0,-1.0));
#361=DIRECTION('',(0.0,1.0,0.0));
#362=SURFACE_STYLE_FILL_AREA(#431);
#363=ORIENTED_EDGE('',*,*,#419,.T.);
#364=ORIENTED_EDGE('',*,*,#432,.F.);
#365=ORIENTED_EDGE('',*,*,#421,.T.);
#366=ORIENTED_EDGE('',*,*,#430,.T.);
#367=CARTESIAN_POINT('',(-9.79717439317883E-16,0.0,16.0));
#368=DIRECTION('',(6.12323399573677E-17,0.0,-1.0));
#369=DIRECTION('',(0.0,1.0,0.0));
#370=SURFACE_STYLE_FILL_AREA(#433);
#371=ORIENTED_EDGE('',*,*,#422,.T.);
#372=ORIENTED_EDGE('',*,*,#432,.T.);
#373=CARTESIAN_POINT('',(3.67394039744206E-16,2.5,-6.0));
#374=DIRECTION('',(6.12323399573677E-17,0.0,-1.0));
#375=DIRECTION('',(0.0,1.0,0.0));
#376=CARTESIAN_POINT('',(3.00038465791102E-15,0.0,-49.0));
#377=VECTOR('',#434,1.0);
#378=CARTESIAN_POINT('',(3.00038465791102E-15,4.71132486540519,-49.0));
#379=VECTOR('',#435,1.0);
#380=CARTESIAN_POINT('',(3.00038465791102E-15,0.0,-49.0));
#381=VECTOR('',#436,1.0);
#382=CARTESIAN_POINT('',(0.0,5.0,0.0));
#383=VECTOR('',#437,1.0);
#384=CARTESIAN_POINT('',(3.67394039744206E-16,5.0,-6.0));
#385=VECTOR('',#438,1.0);
#386=CARTESIAN_POINT('',(3.67394039744206E-16,5.0,-6.0));
#387=VECTOR('',#439,1.0);
#388=CARTESIAN_POINT('',(3.67394039744206E-16,5.0,-6.0));
#389=VECTOR('',#440,1.0);
#390=CARTESIAN_POINT('',(3.67394039744206E-16,0.0,-6.0));
#391=VECTOR('',#441,1.0);
#392=CARTESIAN_POINT('',(3.67394039744206E-16,0.0,-6.0));
#393=VECTOR('',#442,1.0);
#394=CARTESIAN_POINT('',(-2.44929359829471E-15,0.0,40.0));
#395=VECTOR('',#443,1.0);
#396=CARTESIAN_POINT('',(-2.44929359829471E-15,3.0,40.0));
#397=VECTOR('',#444,1.0);
#398=CARTESIAN_POINT('',(-2.32682891837997E-15,5.0,38.0));
#399=VECTOR('',#445,1.0);
#400=CARTESIAN_POINT('',(0.0,5.0,0.0));
#401=VECTOR('',#446,1.0);
#402=FILL_AREA_STYLE('',(#447));
#403=EDGE_CURVE('',#448,#449,#450,.T.);
#404=EDGE_CURVE('',#448,#451,#452,.T.);
#405=EDGE_CURVE('',#453,#451,#454,.T.);
#406=EDGE_CURVE('',#449,#453,#455,.T.);
#407=FILL_AREA_STYLE('',(#456));
#408=EDGE_CURVE('',#457,#448,#458,.T.);
#409=EDGE_CURVE('',#457,#459,#460,.T.);
#410=EDGE_CURVE('',#451,#459,#461,.T.);
#411=FILL_AREA_STYLE('',(#462));
#412=EDGE_CURVE('',#451,#448,#463,.T.);
#413=EDGE_CURVE('',#459,#457,#464,.T.);
#414=FILL_AREA_STYLE('',(#465));
#415=EDGE_CURVE('',#453,#449,#466,.T.);
#416=FILL_AREA_STYLE('',(#467));
#417=FILL_AREA_STYLE('',(#468));
#418=FILL_AREA_STYLE('',(#469));
#419=EDGE_CURVE('',#470,#471,#472,.T.);
#420=EDGE_CURVE('',#470,#473,#474,.T.);
#421=EDGE_CURVE('',#475,#473,#476,.T.);
#422=EDGE_CURVE('',#471,#475,#477,.T.);
#423=FILL_AREA_STYLE('',(#478));
#424=EDGE_CURVE('',#479,#470,#480,.T.);
#425=EDGE_CURVE('',#479,#481,#482,.T.);
#426=EDGE_CURVE('',#473,#481,#483,.T.);
#427=FILL_AREA_STYLE('',(#484));
#428=EDGE_CURVE('',#481,#479,#485,.T.);
#429=FILL_AREA_STYLE('',(#486));
#430=EDGE_CURVE('',#473,#470,#487,.T.);
#431=FILL_AREA_STYLE('',(#488));
#432=EDGE_CURVE('',#475,#471,#489,.T.);
#433=FILL_AREA_STYLE('',(#490));
#434=DIRECTION('',(0.0,1.0,0.0));
#435=DIRECTION('',(-5.30287619362453E-17,0.5,0.866025403784438));
#436=DIRECTION('',(0.0,-1.0,0.0));
#437=DIRECTION('',(6.12323399573677E-17,0.0,-1.0));
#438=DIRECTION('',(0.0,-1.0,0.0));
#439=DIRECTION('',(0.0,-1.0,0.0));
#440=DIRECTION('',(6.12323399573677E-17,0.0,-1.0));
#441=DIRECTION('',(6.12323399573677E-17,0.0,-1.0));
#442=DIRECTION('',(-6.12323399573677E-17,0.0,1.0));
#443=DIRECTION('',(0.0,1.0,0.0));
#444=DIRECTION('',(4.32978028117747E-17,0.707106781186548,-0.707106781186547));
#445=DIRECTION('',(6.12323399573677E-17,0.0,-1.0));
#446=DIRECTION('',(0.0,-1.0,0.0));
#447=FILL_AREA_STYLE_COLOUR('',#491);
#448=VERTEX_POINT('',#492);
#449=VERTEX_POINT('',#493);
#450=LINE('',#494,#495);
#451=VERTEX_POINT('',#496);
#452=CIRCLE('',#497,5.0);
#453=VERTEX_POINT('',#498);
#454=LINE('',#499,#500);
#455=CIRCLE('',#501,4.71132486540519);
#456=FILL_AREA_STYLE_COLOUR('',#502);
#457=VERTEX_POINT('',#503);
#458=LINE('',#504,#505);
#459=VERTEX_POINT('',#506);
#460=CIRCLE('',#507,5.0);
#461=LINE('',#508,#509);
#462=FILL_AREA_STYLE_COLOUR('',#510);
#463=CIRCLE('',#511,5.0);
#464=CIRCLE('',#512,5.0);
#465=FILL_AREA_STYLE_COLOUR('',#513);
#466=CIRCLE('',#514,4.71132486540519);
#467=FILL_AREA_STYLE_COLOUR('',#515);
#468=FILL_AREA_STYLE_COLOUR('',#516);
#469=FILL_AREA_STYLE_COLOUR('',#517);
#470=VERTEX_POINT('',#518);
#471=VERTEX_POINT('',#519);
#472=LINE('',#520,#521);
#473=VERTEX_POINT('',#522);
#474=CIRCLE('',#523,5.0);
#475=VERTEX_POINT('',#524);
#476=LINE('',#525,#526);
#477=CIRCLE('',#527,5.0);
#478=FILL_AREA_STYLE_COLOUR('',#528);
#479=VERTEX_POINT('',#529);
#480=LINE('',#530,#531);
#481=VERTEX_POINT('',#532);
#482=CIRCLE('',#533,3.0);
#483=LINE('',#534,#535);
#484=FILL_AREA_STYLE_COLOUR('',#536);
#485=CIRCLE('',#537,3.0);
#486=FILL_AREA_STYLE_COLOUR('',#538);
#487=CIRCLE('',#539,5.0);
#488=FILL_AREA_STYLE_COLOUR('',#540);
#489=CIRCLE('',#541,5.0);
#490=FILL_AREA_STYLE_COLOUR('',#542);
#491=COLOUR_RGB('',0.800000011920929,0.800000011920929,0.800000011920929);
#492=CARTESIAN_POINT('',(2.96976848793233E-15,5.0,-48.5));
#493=CARTESIAN_POINT('',(3.00038465791102E-15,4.71132486540519,-49.0));
#494=CARTESIAN_POINT('',(2.39042942732675E-15,4.85566243270259,-48.75));
#495=VECTOR('',#543,1.0);
#496=CARTESIAN_POINT('',(3.58209188750601E-15,-5.0,-48.5));
#497=AXIS2_PLACEMENT_3D('',#544,#545,#546);
#498=CARTESIAN_POINT('',(3.57735554952719E-15,-4.71132486540519,-49.0));
#499=CARTESIAN_POINT('',(3.5797237185166E-15,-4.85566243270259,-48.75));
#500=VECTOR('',#547,1.0);
#501=AXIS2_PLACEMENT_3D('',#548,#549,#550);
#502=COLOUR_RGB('',0.800000011920929,0.800000011920929,0.800000011920929);
#503=CARTESIAN_POINT('',(3.67394039744206E-16,5.0,-6.0));
#504=CARTESIAN_POINT('',(1.05625786426459E-15,5.0,-27.25));
#505=VECTOR('',#551,1.0);
#506=CARTESIAN_POINT('',(9.79717439317882E-16,-5.0,-6.0));
#507=AXIS2_PLACEMENT_3D('',#552,#553,#554);
#508=CARTESIAN_POINT('',(2.28090466341194E-15,-5.0,-27.25));
#509=VECTOR('',#555,1.0);
#510=COLOUR_RGB('',0.800000011920929,0.800000011920929,0.800000011920929);
#511=AXIS2_PLACEMENT_3D('',#556,#557,#558);
#512=AXIS2_PLACEMENT_3D('',#559,#560,#561);
#513=COLOUR_RGB('',0.800000011920929,0.800000011920929,0.800000011920929);
#514=AXIS2_PLACEMENT_3D('',#562,#563,#564);
#515=COLOUR_RGB('',0.800000011920929,0.800000011920929,0.800000011920929);
#516=COLOUR_RGB('',0.800000011920929,0.800000011920929,0.800000011920929);
#517=COLOUR_RGB('',0.498039215803146,0.498039215803146,0.498039215803146);
#518=CARTESIAN_POINT('',(-2.32682891837997E-15,5.0,38.0));
#519=CARTESIAN_POINT('',(3.67394039744206E-16,5.0,-6.0));
#520=CARTESIAN_POINT('',(-1.59204083889156E-15,5.0,16.0));
#521=VECTOR('',#565,1.0);
#522=CARTESIAN_POINT('',(-1.7145055188063E-15,-5.0,38.0));
#523=AXIS2_PLACEMENT_3D('',#566,#567,#568);
#524=CARTESIAN_POINT('',(9.79717439317882E-16,-5.0,-6.0));
#525=CARTESIAN_POINT('',(-3.67394039744206E-16,-5.0,16.0));
#526=VECTOR('',#569,1.0);
#527=AXIS2_PLACEMENT_3D('',#570,#571,#572);
#528=COLOUR_RGB('',0.498039215803146,0.498039215803146,0.498039215803146);
#529=CARTESIAN_POINT('',(-2.44929359829471E-15,3.0,40.0));
#530=CARTESIAN_POINT('',(-2.87791997799628E-15,4.0,39.0));
#531=VECTOR('',#573,1.0);
#532=CARTESIAN_POINT('',(-2.0818995585505E-15,-3.0,40.0));
#533=AXIS2_PLACEMENT_3D('',#574,#575,#576);
#534=CARTESIAN_POINT('',(-1.8982025386784E-15,-4.0,39.0));
#535=VECTOR('',#577,1.0);
#536=COLOUR_RGB('',0.498039215803146,0.498039215803146,0.498039215803146);
#537=AXIS2_PLACEMENT_3D('',#578,#579,#580);
#538=COLOUR_RGB('',0.498039215803146,0.498039215803146,0.498039215803146);
#539=AXIS2_PLACEMENT_3D('',#581,#582,#583);
#540=COLOUR_RGB('',0.498039215803146,0.498039215803146,0.498039215803146);
#541=AXIS2_PLACEMENT_3D('',#584,#585,#586);
#542=COLOUR_RGB('',0.498039215803146,0.498039215803146,0.498039215803146);
#543=DIRECTION('',(1.14261101893613E-16,-0.5,-0.866025403784439));
#544=CARTESIAN_POINT('',(2.96976848793233E-15,0.0,-48.5));
#545=DIRECTION('',(6.12323399573677E-17,0.0,-1.0));
#546=DIRECTION('',(0.0,1.0,0.0));
#547=DIRECTION('',(8.20357802112233E-18,-0.5,0.866025403784439));
#548=CARTESIAN_POINT('',(3.00038465791102E-15,0.0,-49.0));
#549=DIRECTION('',(6.12323399573677E-17,0.0,-1.0));
#550=DIRECTION('',(0.0,1.0,0.0));
#551=DIRECTION('',(6.12323399573677E-17,0.0,-1.0));
#552=CARTESIAN_POINT('',(3.67394039744206E-16,0.0,-6.0));
#553=DIRECTION('',(6.12323399573677E-17,0.0,-1.0));
#554=DIRECTION('',(0.0,1.0,0.0));
#555=DIRECTION('',(-6.12323399573677E-17,-0.0,1.0));
#556=CARTESIAN_POINT('',(2.96976848793233E-15,0.0,-48.5));
#557=DIRECTION('',(6.12323399573677E-17,0.0,-1.0));
#558=DIRECTION('',(0.0,1.0,0.0));
#559=CARTESIAN_POINT('',(3.67394039744206E-16,0.0,-6.0));
#560=DIRECTION('',(6.12323399573677E-17,0.0,-1.0));
#561=DIRECTION('',(0.0,1.0,0.0));
#562=CARTESIAN_POINT('',(3.00038465791102E-15,0.0,-49.0));
#563=DIRECTION('',(6.12323399573677E-17,0.0,-1.0));
#564=DIRECTION('',(0.0,1.0,0.0));
#565=DIRECTION('',(6.12323399573677E-17,0.0,-1.0));
#566=CARTESIAN_POINT('',(-2.32682891837997E-15,0.0,38.0));
#567=DIRECTION('',(6.12323399573677E-17,0.0,-1.0));
#568=DIRECTION('',(0.0,1.0,0.0));
#569=DIRECTION('',(-6.12323399573677E-17,-0.0,1.0));
#570=CARTESIAN_POINT('',(3.67394039744206E-16,0.0,-6.0));
#571=DIRECTION('',(6.12323399573677E-17,0.0,-1.0));
#572=DIRECTION('',(0.0,1.0,0.0));
#573=DIRECTION('',(-4.32978028117746E-17,0.707106781186548,-0.707106781186547));
#574=CARTESIAN_POINT('',(-2.44929359829471E-15,0.0,40.0));
#575=DIRECTION('',(6.12323399573676E-17,0.0,-1.0));
#576=DIRECTION('',(0.0,1.0,0.0));
#577=DIRECTION('',(-1.29893408435324E-16,0.707106781186548,0.707106781186547));
#578=CARTESIAN_POINT('',(-2.44929359829471E-15,0.0,40.0));
#579=DIRECTION('',(6.12323399573676E-17,0.0,-1.0));
#580=DIRECTION('',(0.0,1.0,0.0));
#581=CARTESIAN_POINT('',(-2.32682891837997E-15,0.0,38.0));
#582=DIRECTION('',(6.12323399573677E-17,0.0,-1.0));
#583=DIRECTION('',(0.0,1.0,0.0));
#584=CARTESIAN_POINT('',(3.67394039744206E-16,0.0,-6.0));
#585=DIRECTION('',(6.12323399573677E-17,0.0,-1.0));
#586=DIRECTION('',(0.0,1.0,0.0));
#587=DIRECTION('',(0.0,0.0,1.0));
#588=DIRECTION('',(1.0,0.0,0.0));
#589=CARTESIAN_POINT('',(0.0,0.0,40.000000));
#590=AXIS2_PLACEMENT_3D('PCS', #589,#587,#588);
#591=CARTESIAN_POINT('',(0.0,0.0,0.000000));
#592=AXIS2_PLACEMENT_3D('MCS', #591,#587,#588);
#593=CARTESIAN_POINT('',(0.0,0.0,-49.000000));
#594=AXIS2_PLACEMENT_3D('CIP', #593,#587,#588);
ENDSEC;
END-ISO-10303-21;
