ISO-10303-21;
HEADER;
FILE_DESCRIPTION(('STEP AP214'),'1');
FILE_NAME('607690494-000-00-E43.stp','2022-03-11T08:04:29',(' '),(' '),'Spatial InterOp 3D',' ',' ');
FILE_SCHEMA(('AUTOMOTIVE_DESIGN { 1 0 10303 214 1 1 1 1 }'));
ENDSEC;
DATA;
#1=MECHANICAL_DESIGN_GEOMETRIC_PRESENTATION_REPRESENTATION(' ',(#12,#13,#14,#15,#16,#17,#18,#19,#20,#21,#22,#23,#24,#25,#26,#27),#8);
#2=PRODUCT_DEFINITION_CONTEXT('',#28,'design');
#3=APPLICATION_PROTOCOL_DEFINITION('INTERNATIONAL STANDARD','automotive_design',1994,#28);
#4=PRODUCT_CATEGORY_RELATIONSHIP('NONE','NONE',#29,#30);
#5=SHAPE_DEFINITION_REPRESENTATION(#31,#32);
#6=SHAPE_DEFINITION_REPRESENTATION(#31,#33);
#7=SHAPE_DEFINITION_REPRESENTATION(#31,#34);
#8= (GEOMETRIC_REPRESENTATION_CONTEXT(3)GLOBAL_UNCERTAINTY_ASSIGNED_CONTEXT((#37))GLOBAL_UNIT_ASSIGNED_CONTEXT((#39,#40,#41))REPRESENTATION_CONTEXT('NONE','WORKSPACE'));
#12=STYLED_ITEM('',(#43),#44);
#13=STYLED_ITEM('',(#45),#46);
#14=STYLED_ITEM('',(#47),#48);
#15=STYLED_ITEM('',(#49),#50);
#16=STYLED_ITEM('',(#51),#52);
#17=STYLED_ITEM('',(#53),#54);
#18=STYLED_ITEM('',(#55),#56);
#19=STYLED_ITEM('',(#57),#58);
#20=STYLED_ITEM('',(#59),#60);
#21=STYLED_ITEM('',(#61),#62);
#22=STYLED_ITEM('',(#63),#64);
#23=STYLED_ITEM('',(#65),#66);
#24=STYLED_ITEM('',(#67),#68);
#25=STYLED_ITEM('',(#69),#70);
#26=STYLED_ITEM('',(#71),#72);
#27=STYLED_ITEM('',(#73),#74);
#28=APPLICATION_CONTEXT(' ');
#29=PRODUCT_CATEGORY('part','NONE');
#30=PRODUCT_RELATED_PRODUCT_CATEGORY('detail',' ',(#75));
#31=PRODUCT_DEFINITION_SHAPE('NONE','NONE',#76);
#32=ADVANCED_BREP_SHAPE_REPRESENTATION('1',(#77,#78),#8);
#33=ADVANCED_BREP_SHAPE_REPRESENTATION('2',(#79,#80),#8);
#34=GEOMETRICALLY_BOUNDED_SURFACE_SHAPE_REPRESENTATION('3',(#81,#82),#8);
#37=UNCERTAINTY_MEASURE_WITH_UNIT(LENGTH_MEASURE(1.0E-06),#39,'','');
#39= (CONVERSION_BASED_UNIT('MILLIMETRE',#85)LENGTH_UNIT()NAMED_UNIT(#88));
#40= (NAMED_UNIT(#90)PLANE_ANGLE_UNIT()SI_UNIT($,.RADIAN.));
#41= (NAMED_UNIT(#90)SOLID_ANGLE_UNIT()SI_UNIT($,.STERADIAN.));
#43=PRESENTATION_STYLE_ASSIGNMENT((#96));
#44=COMPOSITE_CURVE('',(#97),.U.);
#45=PRESENTATION_STYLE_ASSIGNMENT((#98));
#46=COMPOSITE_CURVE('',(#99),.U.);
#47=PRESENTATION_STYLE_ASSIGNMENT((#100));
#48=COMPOSITE_CURVE('',(#101,#102,#103,#104,#105),.U.);
#49=PRESENTATION_STYLE_ASSIGNMENT((#106));
#50=ADVANCED_FACE('',(#107),#108,.T.);
#51=PRESENTATION_STYLE_ASSIGNMENT((#109));
#52=ADVANCED_FACE('',(#110),#111,.T.);
#53=PRESENTATION_STYLE_ASSIGNMENT((#112));
#54=ADVANCED_FACE('',(#113),#114,.T.);
#55=PRESENTATION_STYLE_ASSIGNMENT((#115));
#56=ADVANCED_FACE('',(#116),#117,.T.);
#57=PRESENTATION_STYLE_ASSIGNMENT((#118));
#58=ADVANCED_FACE('',(#119),#120,.T.);
#59=PRESENTATION_STYLE_ASSIGNMENT((#121));
#60=ADVANCED_FACE('',(#122),#123,.T.);
#61=PRESENTATION_STYLE_ASSIGNMENT((#124));
#62=COMPOSITE_CURVE('',(#125,#126,#127,#128,#129),.U.);
#63=PRESENTATION_STYLE_ASSIGNMENT((#130));
#64=ADVANCED_FACE('',(#131),#132,.T.);
#65=PRESENTATION_STYLE_ASSIGNMENT((#133));
#66=ADVANCED_FACE('',(#134),#135,.T.);
#67=PRESENTATION_STYLE_ASSIGNMENT((#136));
#68=ADVANCED_FACE('',(#137),#138,.T.);
#69=PRESENTATION_STYLE_ASSIGNMENT((#139));
#70=ADVANCED_FACE('',(#140),#141,.T.);
#71=PRESENTATION_STYLE_ASSIGNMENT((#142));
#72=ADVANCED_FACE('',(#143),#144,.T.);
#73=PRESENTATION_STYLE_ASSIGNMENT((#145));
#74=ADVANCED_FACE('',(#146),#147,.T.);
#75=PRODUCT('1','','PART--DESC',(#148));
#76=PRODUCT_DEFINITION('','NONE',#149,#2);
#77=MANIFOLD_SOLID_BREP('1',#150);
#78=AXIS2_PLACEMENT_3D('',#151,#152,#153);
#79=MANIFOLD_SOLID_BREP('2',#154);
#80=AXIS2_PLACEMENT_3D('',#155,#156,#157);
#81=GEOMETRIC_SET('3',(#44,#46,#48,#62));
#82=AXIS2_PLACEMENT_3D('',#158,#159,#160);
#85=LENGTH_MEASURE_WITH_UNIT(LENGTH_MEASURE(1.0),#161);
#88=DIMENSIONAL_EXPONENTS(1.0,0.0,0.0,0.0,0.0,0.0,0.0);
#90=DIMENSIONAL_EXPONENTS(0.0,0.0,0.0,0.0,0.0,0.0,0.0);
#96=CURVE_STYLE('',#162,POSITIVE_LENGTH_MEASURE(1.0E-06),#163);
#97=COMPOSITE_CURVE_SEGMENT(.CONTINUOUS.,.T.,#164);
#98=CURVE_STYLE('',#165,POSITIVE_LENGTH_MEASURE(1.0E-06),#166);
#99=COMPOSITE_CURVE_SEGMENT(.CONTINUOUS.,.T.,#167);
#100=CURVE_STYLE('',#168,POSITIVE_LENGTH_MEASURE(1.0E-06),#169);
#101=COMPOSITE_CURVE_SEGMENT(.CONTINUOUS.,.T.,#170);
#102=COMPOSITE_CURVE_SEGMENT(.CONTINUOUS.,.T.,#171);
#103=COMPOSITE_CURVE_SEGMENT(.CONTINUOUS.,.T.,#172);
#104=COMPOSITE_CURVE_SEGMENT(.CONTINUOUS.,.T.,#173);
#105=COMPOSITE_CURVE_SEGMENT(.CONTINUOUS.,.T.,#174);
#106=SURFACE_STYLE_USAGE(.BOTH.,#175);
#107=FACE_OUTER_BOUND('',#176,.T.);
#108=CYLINDRICAL_SURFACE('',#177,4.0);
#109=SURFACE_STYLE_USAGE(.BOTH.,#178);
#110=FACE_OUTER_BOUND('',#179,.T.);
#111=CONICAL_SURFACE('',#180,3.8,0.785398163397448);
#112=SURFACE_STYLE_USAGE(.BOTH.,#181);
#113=FACE_OUTER_BOUND('',#182,.T.);
#114=PLANE('',#183);
#115=SURFACE_STYLE_USAGE(.BOTH.,#184);
#116=FACE_OUTER_BOUND('',#185,.T.);
#117=CONICAL_SURFACE('',#186,3.8,0.785398163397448);
#118=SURFACE_STYLE_USAGE(.BOTH.,#187);
#119=FACE_OUTER_BOUND('',#188,.T.);
#120=CYLINDRICAL_SURFACE('',#189,4.0);
#121=SURFACE_STYLE_USAGE(.BOTH.,#190);
#122=FACE_OUTER_BOUND('',#191,.T.);
#123=PLANE('',#192);
#124=CURVE_STYLE('',#193,POSITIVE_LENGTH_MEASURE(1.0E-06),#194);
#125=COMPOSITE_CURVE_SEGMENT(.CONTINUOUS.,.T.,#195);
#126=COMPOSITE_CURVE_SEGMENT(.CONTINUOUS.,.T.,#196);
#127=COMPOSITE_CURVE_SEGMENT(.CONTINUOUS.,.T.,#197);
#128=COMPOSITE_CURVE_SEGMENT(.CONTINUOUS.,.T.,#198);
#129=COMPOSITE_CURVE_SEGMENT(.CONTINUOUS.,.T.,#199);
#130=SURFACE_STYLE_USAGE(.BOTH.,#200);
#131=FACE_OUTER_BOUND('',#201,.T.);
#132=CONICAL_SURFACE('',#202,3.88452994616208,0.52359877559829);
#133=SURFACE_STYLE_USAGE(.BOTH.,#203);
#134=FACE_OUTER_BOUND('',#204,.T.);
#135=CYLINDRICAL_SURFACE('',#205,4.0);
#136=SURFACE_STYLE_USAGE(.BOTH.,#206);
#137=FACE_OUTER_BOUND('',#207,.T.);
#138=PLANE('',#208);
#139=SURFACE_STYLE_USAGE(.BOTH.,#209);
#140=FACE_OUTER_BOUND('',#210,.T.);
#141=CYLINDRICAL_SURFACE('',#211,4.0);
#142=SURFACE_STYLE_USAGE(.BOTH.,#212);
#143=FACE_OUTER_BOUND('',#213,.T.);
#144=CONICAL_SURFACE('',#214,3.88452994616208,0.52359877559829);
#145=SURFACE_STYLE_USAGE(.BOTH.,#215);
#146=FACE_OUTER_BOUND('',#216,.T.);
#147=PLANE('',#217);
#148=PRODUCT_CONTEXT('',#28,'mechanical');
#149=PRODUCT_DEFINITION_FORMATION_WITH_SPECIFIED_SOURCE(' ','NONE',#75,.NOT_KNOWN.);
#150=CLOSED_SHELL('',(#50,#52,#54,#56,#58,#60));
#151=CARTESIAN_POINT('',(0.0,0.0,0.0));
#152=DIRECTION('',(0.0,0.0,1.0));
#153=DIRECTION('',(1.0,0.0,0.0));
#154=CLOSED_SHELL('',(#64,#66,#68,#70,#72,#74));
#155=CARTESIAN_POINT('',(0.0,0.0,0.0));
#156=DIRECTION('',(0.0,0.0,1.0));
#157=DIRECTION('',(1.0,0.0,0.0));
#158=CARTESIAN_POINT('',(0.0,0.0,0.0));
#159=DIRECTION('',(0.0,0.0,1.0));
#160=DIRECTION('',(1.0,0.0,0.0));
#161= (NAMED_UNIT(#88)LENGTH_UNIT()SI_UNIT(.MILLI.,.METRE.));
#162=DRAUGHTING_PRE_DEFINED_CURVE_FONT('continuous');
#163=COLOUR_RGB('',0.498039215803146,0.498039215803146,0.498039215803146);
#164=TRIMMED_CURVE('',#219,(PARAMETER_VALUE(0.0)),(PARAMETER_VALUE(4.0)),.T.,.UNSPECIFIED.);
#165=DRAUGHTING_PRE_DEFINED_CURVE_FONT('continuous');
#166=COLOUR_RGB('',0.0,1.0,0.0);
#167=TRIMMED_CURVE('',#220,(PARAMETER_VALUE(0.0)),(PARAMETER_VALUE(4.0)),.T.,.UNSPECIFIED.);
#168=DRAUGHTING_PRE_DEFINED_CURVE_FONT('continuous');
#169=COLOUR_RGB('',0.498039215803146,0.498039215803146,0.498039215803146);
#170=TRIMMED_CURVE('',#221,(PARAMETER_VALUE(0.0)),(PARAMETER_VALUE(4.0)),.T.,.UNSPECIFIED.);
#171=TRIMMED_CURVE('',#222,(PARAMETER_VALUE(0.0)),(PARAMETER_VALUE(37.6)),.T.,.UNSPECIFIED.);
#172=TRIMMED_CURVE('',#223,(PARAMETER_VALUE(0.0)),(PARAMETER_VALUE(0.565685424949246)),.T.,.UNSPECIFIED.);
#173=TRIMMED_CURVE('',#224,(PARAMETER_VALUE(0.0)),(PARAMETER_VALUE(3.59999999999999)),.T.,.UNSPECIFIED.);
#174=TRIMMED_CURVE('',#225,(PARAMETER_VALUE(0.0)),(PARAMETER_VALUE(38.0)),.T.,.UNSPECIFIED.);
#175=SURFACE_SIDE_STYLE('',(#226));
#176=EDGE_LOOP('',(#227,#228,#229,#230));
#177=AXIS2_PLACEMENT_3D('',#231,#232,#233);
#178=SURFACE_SIDE_STYLE('',(#234));
#179=EDGE_LOOP('',(#235,#236,#237,#238));
#180=AXIS2_PLACEMENT_3D('',#239,#240,#241);
#181=SURFACE_SIDE_STYLE('',(#242));
#182=EDGE_LOOP('',(#243,#244));
#183=AXIS2_PLACEMENT_3D('',#245,#246,#247);
#184=SURFACE_SIDE_STYLE('',(#248));
#185=EDGE_LOOP('',(#249,#250,#251,#252));
#186=AXIS2_PLACEMENT_3D('',#253,#254,#255);
#187=SURFACE_SIDE_STYLE('',(#256));
#188=EDGE_LOOP('',(#257,#258,#259,#260));
#189=AXIS2_PLACEMENT_3D('',#261,#262,#263);
#190=SURFACE_SIDE_STYLE('',(#264));
#191=EDGE_LOOP('',(#265,#266));
#192=AXIS2_PLACEMENT_3D('',#267,#268,#269);
#193=DRAUGHTING_PRE_DEFINED_CURVE_FONT('continuous');
#194=COLOUR_RGB('',0.0,0.0,1.0);
#195=TRIMMED_CURVE('',#270,(PARAMETER_VALUE(0.0)),(PARAMETER_VALUE(3.76905989232415)),.T.,.UNSPECIFIED.);
#196=TRIMMED_CURVE('',#271,(PARAMETER_VALUE(0.0)),(PARAMETER_VALUE(0.461880215351705)),.T.,.UNSPECIFIED.);
#197=TRIMMED_CURVE('',#272,(PARAMETER_VALUE(0.0)),(PARAMETER_VALUE(40.6)),.T.,.UNSPECIFIED.);
#198=TRIMMED_CURVE('',#273,(PARAMETER_VALUE(0.0)),(PARAMETER_VALUE(4.0)),.T.,.UNSPECIFIED.);
#199=TRIMMED_CURVE('',#274,(PARAMETER_VALUE(0.0)),(PARAMETER_VALUE(41.0)),.T.,.UNSPECIFIED.);
#200=SURFACE_SIDE_STYLE('',(#275));
#201=EDGE_LOOP('',(#276,#277,#278,#279));
#202=AXIS2_PLACEMENT_3D('',#280,#281,#282);
#203=SURFACE_SIDE_STYLE('',(#283));
#204=EDGE_LOOP('',(#284,#285,#286,#287));
#205=AXIS2_PLACEMENT_3D('',#288,#289,#290);
#206=SURFACE_SIDE_STYLE('',(#291));
#207=EDGE_LOOP('',(#292,#293));
#208=AXIS2_PLACEMENT_3D('',#294,#295,#296);
#209=SURFACE_SIDE_STYLE('',(#297));
#210=EDGE_LOOP('',(#298,#299,#300,#301));
#211=AXIS2_PLACEMENT_3D('',#302,#303,#304);
#212=SURFACE_SIDE_STYLE('',(#305));
#213=EDGE_LOOP('',(#306,#307,#308,#309));
#214=AXIS2_PLACEMENT_3D('',#310,#311,#312);
#215=SURFACE_SIDE_STYLE('',(#313));
#216=EDGE_LOOP('',(#314,#315));
#217=AXIS2_PLACEMENT_3D('',#316,#317,#318);
#219=LINE('',#319,#320);
#220=LINE('',#321,#322);
#221=LINE('',#323,#324);
#222=LINE('',#325,#326);
#223=LINE('',#327,#328);
#224=LINE('',#329,#330);
#225=LINE('',#331,#332);
#226=SURFACE_STYLE_FILL_AREA(#333);
#227=ORIENTED_EDGE('',*,*,#334,.F.);
#228=ORIENTED_EDGE('',*,*,#335,.T.);
#229=ORIENTED_EDGE('',*,*,#336,.F.);
#230=ORIENTED_EDGE('',*,*,#337,.F.);
#231=CARTESIAN_POINT('',(-1.02870331128378E-15,2.40801336910996E-16,16.8));
#232=DIRECTION('',(6.12323399573676E-17,0.0,-1.0));
#233=DIRECTION('',(0.0,1.0,0.0));
#234=SURFACE_STYLE_FILL_AREA(#338);
#235=ORIENTED_EDGE('',*,*,#339,.F.);
#236=ORIENTED_EDGE('',*,*,#340,.T.);
#237=ORIENTED_EDGE('',*,*,#341,.F.);
#238=ORIENTED_EDGE('',*,*,#335,.F.);
#239=CARTESIAN_POINT('',(-2.19211777047376E-15,2.40801336910996E-16,35.8));
#240=DIRECTION('',(6.12323399573676E-17,-0.0,-1.0));
#241=DIRECTION('',(0.0,1.0,0.0));
#242=SURFACE_STYLE_FILL_AREA(#342);
#243=ORIENTED_EDGE('',*,*,#340,.F.);
#244=ORIENTED_EDGE('',*,*,#343,.F.);
#245=CARTESIAN_POINT('',(-2.20436423846524E-15,1.8,36.0));
#246=DIRECTION('',(-6.12323399573677E-17,0.0,1.0));
#247=DIRECTION('',(0.0,-1.0,0.0));
#248=SURFACE_STYLE_FILL_AREA(#344);
#249=ORIENTED_EDGE('',*,*,#339,.T.);
#250=ORIENTED_EDGE('',*,*,#345,.F.);
#251=ORIENTED_EDGE('',*,*,#341,.T.);
#252=ORIENTED_EDGE('',*,*,#343,.T.);
#253=CARTESIAN_POINT('',(-2.19211777047376E-15,2.40801336910996E-16,35.8));
#254=DIRECTION('',(6.12323399573676E-17,-0.0,-1.0));
#255=DIRECTION('',(0.0,1.0,0.0));
#256=SURFACE_STYLE_FILL_AREA(#346);
#257=ORIENTED_EDGE('',*,*,#334,.T.);
#258=ORIENTED_EDGE('',*,*,#347,.F.);
#259=ORIENTED_EDGE('',*,*,#336,.T.);
#260=ORIENTED_EDGE('',*,*,#345,.T.);
#261=CARTESIAN_POINT('',(-1.02870331128378E-15,2.40801336910996E-16,16.8));
#262=DIRECTION('',(6.12323399573676E-17,0.0,-1.0));
#263=DIRECTION('',(0.0,1.0,0.0));
#264=SURFACE_STYLE_FILL_AREA(#348);
#265=ORIENTED_EDGE('',*,*,#337,.T.);
#266=ORIENTED_EDGE('',*,*,#347,.T.);
#267=CARTESIAN_POINT('',(1.22464679914735E-16,2.0,-2.0));
#268=DIRECTION('',(6.12323399573677E-17,0.0,-1.0));
#269=DIRECTION('',(0.0,1.0,0.0));
#270=LINE('',#349,#350);
#271=LINE('',#351,#352);
#272=LINE('',#353,#354);
#273=LINE('',#355,#356);
#274=LINE('',#357,#358);
#275=SURFACE_STYLE_FILL_AREA(#359);
#276=ORIENTED_EDGE('',*,*,#360,.F.);
#277=ORIENTED_EDGE('',*,*,#361,.T.);
#278=ORIENTED_EDGE('',*,*,#362,.F.);
#279=ORIENTED_EDGE('',*,*,#363,.F.);
#280=CARTESIAN_POINT('',(2.62074415017534E-15,2.40801336910996E-16,-42.8));
#281=DIRECTION('',(-6.12323399573677E-17,-0.0,1.0));
#282=DIRECTION('',(0.0,1.0,0.0));
#283=SURFACE_STYLE_FILL_AREA(#364);
#284=ORIENTED_EDGE('',*,*,#365,.F.);
#285=ORIENTED_EDGE('',*,*,#366,.T.);
#286=ORIENTED_EDGE('',*,*,#367,.F.);
#287=ORIENTED_EDGE('',*,*,#361,.F.);
#288=CARTESIAN_POINT('',(1.3654811810493E-15,2.40801336910996E-16,-22.3));
#289=DIRECTION('',(6.12323399573676E-17,0.0,-1.0));
#290=DIRECTION('',(0.0,1.0,0.0));
#291=SURFACE_STYLE_FILL_AREA(#368);
#292=ORIENTED_EDGE('',*,*,#366,.F.);
#293=ORIENTED_EDGE('',*,*,#369,.F.);
#294=CARTESIAN_POINT('',(1.22464679914735E-16,2.0,-2.0));
#295=DIRECTION('',(-6.12323399573677E-17,0.0,1.0));
#296=DIRECTION('',(0.0,-1.0,0.0));
#297=SURFACE_STYLE_FILL_AREA(#370);
#298=ORIENTED_EDGE('',*,*,#365,.T.);
#299=ORIENTED_EDGE('',*,*,#371,.F.);
#300=ORIENTED_EDGE('',*,*,#367,.T.);
#301=ORIENTED_EDGE('',*,*,#369,.T.);
#302=CARTESIAN_POINT('',(1.3654811810493E-15,2.40801336910996E-16,-22.3));
#303=DIRECTION('',(6.12323399573676E-17,0.0,-1.0));
#304=DIRECTION('',(0.0,1.0,0.0));
#305=SURFACE_STYLE_FILL_AREA(#372);
#306=ORIENTED_EDGE('',*,*,#360,.T.);
#307=ORIENTED_EDGE('',*,*,#373,.F.);
#308=ORIENTED_EDGE('',*,*,#362,.T.);
#309=ORIENTED_EDGE('',*,*,#371,.T.);
#310=CARTESIAN_POINT('',(2.62074415017534E-15,2.40801336910996E-16,-42.8));
#311=DIRECTION('',(-6.12323399573677E-17,-0.0,1.0));
#312=DIRECTION('',(0.0,1.0,0.0));
#313=SURFACE_STYLE_FILL_AREA(#374);
#314=ORIENTED_EDGE('',*,*,#363,.T.);
#315=ORIENTED_EDGE('',*,*,#373,.T.);
#316=CARTESIAN_POINT('',(2.63299061816681E-15,1.88452994616208,-43.0));
#317=DIRECTION('',(6.12323399573677E-17,0.0,-1.0));
#318=DIRECTION('',(0.0,1.0,0.0));
#319=CARTESIAN_POINT('',(1.22464679914735E-16,4.0,-2.0));
#320=VECTOR('',#375,1.0);
#321=CARTESIAN_POINT('',(0.0,4.0,0.0));
#322=VECTOR('',#376,1.0);
#323=CARTESIAN_POINT('',(1.22464679914735E-16,0.0,-2.0));
#324=VECTOR('',#377,1.0);
#325=CARTESIAN_POINT('',(1.22464679914735E-16,4.0,-2.0));
#326=VECTOR('',#378,1.0);
#327=CARTESIAN_POINT('',(-2.17987130248229E-15,4.0,35.6));
#328=VECTOR('',#379,1.0);
#329=CARTESIAN_POINT('',(-2.20436423846524E-15,3.59999999999999,36.0));
#330=VECTOR('',#380,1.0);
#331=CARTESIAN_POINT('',(-2.20436423846524E-15,0.0,36.0));
#332=VECTOR('',#381,1.0);
#333=FILL_AREA_STYLE('',(#382));
#334=EDGE_CURVE('',#383,#384,#385,.T.);
#335=EDGE_CURVE('',#383,#386,#387,.T.);
#336=EDGE_CURVE('',#388,#386,#389,.T.);
#337=EDGE_CURVE('',#384,#388,#390,.T.);
#338=FILL_AREA_STYLE('',(#391));
#339=EDGE_CURVE('',#392,#383,#393,.T.);
#340=EDGE_CURVE('',#392,#394,#395,.T.);
#341=EDGE_CURVE('',#386,#394,#396,.T.);
#342=FILL_AREA_STYLE('',(#397));
#343=EDGE_CURVE('',#394,#392,#398,.T.);
#344=FILL_AREA_STYLE('',(#399));
#345=EDGE_CURVE('',#386,#383,#400,.T.);
#346=FILL_AREA_STYLE('',(#401));
#347=EDGE_CURVE('',#388,#384,#402,.T.);
#348=FILL_AREA_STYLE('',(#403));
#349=CARTESIAN_POINT('',(2.63299061816681E-15,0.0,-43.0));
#350=VECTOR('',#404,1.0);
#351=CARTESIAN_POINT('',(2.63299061816681E-15,3.76905989232415,-43.0));
#352=VECTOR('',#405,1.0);
#353=CARTESIAN_POINT('',(2.60849768218386E-15,4.0,-42.6));
#354=VECTOR('',#406,1.0);
#355=CARTESIAN_POINT('',(1.22464679914735E-16,4.0,-2.0));
#356=VECTOR('',#407,1.0);
#357=CARTESIAN_POINT('',(1.22464679914735E-16,0.0,-2.0));
#358=VECTOR('',#408,1.0);
#359=FILL_AREA_STYLE('',(#409));
#360=EDGE_CURVE('',#410,#411,#412,.T.);
#361=EDGE_CURVE('',#410,#413,#414,.T.);
#362=EDGE_CURVE('',#415,#413,#416,.T.);
#363=EDGE_CURVE('',#411,#415,#417,.T.);
#364=FILL_AREA_STYLE('',(#418));
#365=EDGE_CURVE('',#419,#410,#420,.T.);
#366=EDGE_CURVE('',#419,#421,#422,.T.);
#367=EDGE_CURVE('',#413,#421,#423,.T.);
#368=FILL_AREA_STYLE('',(#424));
#369=EDGE_CURVE('',#421,#419,#425,.T.);
#370=FILL_AREA_STYLE('',(#426));
#371=EDGE_CURVE('',#413,#410,#427,.T.);
#372=FILL_AREA_STYLE('',(#428));
#373=EDGE_CURVE('',#415,#411,#429,.T.);
#374=FILL_AREA_STYLE('',(#430));
#375=DIRECTION('',(0.0,-1.0,0.0));
#376=DIRECTION('',(0.0,-1.0,0.0));
#377=DIRECTION('',(0.0,1.0,0.0));
#378=DIRECTION('',(-6.12323399573677E-17,0.0,1.0));
#379=DIRECTION('',(-4.32978028117748E-17,-0.707106781186547,0.707106781186547));
#380=DIRECTION('',(0.0,-1.0,0.0));
#381=DIRECTION('',(6.12323399573677E-17,0.0,-1.0));
#382=FILL_AREA_STYLE_COLOUR('',#431);
#383=VERTEX_POINT('',#432);
#384=VERTEX_POINT('',#433);
#385=LINE('',#434,#435);
#386=VERTEX_POINT('',#436);
#387=CIRCLE('',#437,4.0);
#388=VERTEX_POINT('',#438);
#389=LINE('',#439,#440);
#390=CIRCLE('',#441,4.0);
#391=FILL_AREA_STYLE_COLOUR('',#442);
#392=VERTEX_POINT('',#443);
#393=LINE('',#444,#445);
#394=VERTEX_POINT('',#446);
#395=CIRCLE('',#447,3.59999999999999);
#396=LINE('',#448,#449);
#397=FILL_AREA_STYLE_COLOUR('',#450);
#398=CIRCLE('',#451,3.59999999999999);
#399=FILL_AREA_STYLE_COLOUR('',#452);
#400=CIRCLE('',#453,4.0);
#401=FILL_AREA_STYLE_COLOUR('',#454);
#402=CIRCLE('',#455,4.0);
#403=FILL_AREA_STYLE_COLOUR('',#456);
#404=DIRECTION('',(0.0,1.0,0.0));
#405=DIRECTION('',(-5.3028761936245E-17,0.499999999999993,0.866025403784443));
#406=DIRECTION('',(-6.12323399573677E-17,0.0,1.0));
#407=DIRECTION('',(0.0,-1.0,0.0));
#408=DIRECTION('',(6.12323399573677E-17,0.0,-1.0));
#409=FILL_AREA_STYLE_COLOUR('',#457);
#410=VERTEX_POINT('',#458);
#411=VERTEX_POINT('',#459);
#412=LINE('',#460,#461);
#413=VERTEX_POINT('',#462);
#414=CIRCLE('',#463,4.0);
#415=VERTEX_POINT('',#464);
#416=LINE('',#465,#466);
#417=CIRCLE('',#467,3.76905989232415);
#418=FILL_AREA_STYLE_COLOUR('',#468);
#419=VERTEX_POINT('',#469);
#420=LINE('',#470,#471);
#421=VERTEX_POINT('',#472);
#422=CIRCLE('',#473,4.0);
#423=LINE('',#474,#475);
#424=FILL_AREA_STYLE_COLOUR('',#476);
#425=CIRCLE('',#477,4.0);
#426=FILL_AREA_STYLE_COLOUR('',#478);
#427=CIRCLE('',#479,4.0);
#428=FILL_AREA_STYLE_COLOUR('',#480);
#429=CIRCLE('',#481,3.76905989232415);
#430=FILL_AREA_STYLE_COLOUR('',#482);
#431=COLOUR_RGB('',0.498039215803146,0.498039215803146,0.498039215803146);
#432=CARTESIAN_POINT('',(-2.17987130248229E-15,4.0,35.6));
#433=CARTESIAN_POINT('',(1.22464679914735E-16,4.0,-2.0));
#434=CARTESIAN_POINT('',(-1.51856203094272E-15,4.0,16.8));
#435=VECTOR('',#483,1.0);
#436=CARTESIAN_POINT('',(-1.69001258282335E-15,-4.0,35.6));
#437=AXIS2_PLACEMENT_3D('',#484,#485,#486);
#438=CARTESIAN_POINT('',(6.12323399573677E-16,-4.0,-2.0));
#439=CARTESIAN_POINT('',(-5.38844591624835E-16,-4.0,16.8));
#440=VECTOR('',#487,1.0);
#441=AXIS2_PLACEMENT_3D('',#488,#489,#490);
#442=COLOUR_RGB('',0.498039215803146,0.498039215803146,0.498039215803146);
#443=CARTESIAN_POINT('',(-2.20436423846524E-15,3.59999999999999,36.0));
#444=CARTESIAN_POINT('',(-2.65748355414976E-15,3.8,35.8));
#445=VECTOR('',#491,1.0);
#446=CARTESIAN_POINT('',(-1.76349139077219E-15,-3.59999999999999,36.0));
#447=AXIS2_PLACEMENT_3D('',#492,#493,#494);
#448=CARTESIAN_POINT('',(-1.72675198679777E-15,-3.8,35.8));
#449=VECTOR('',#495,1.0);
#450=COLOUR_RGB('',0.498039215803146,0.498039215803146,0.498039215803146);
#451=AXIS2_PLACEMENT_3D('',#496,#497,#498);
#452=COLOUR_RGB('',0.498039215803146,0.498039215803146,0.498039215803146);
#453=AXIS2_PLACEMENT_3D('',#499,#500,#501);
#454=COLOUR_RGB('',0.498039215803146,0.498039215803146,0.498039215803146);
#455=AXIS2_PLACEMENT_3D('',#502,#503,#504);
#456=COLOUR_RGB('',0.498039215803146,0.498039215803146,0.498039215803146);
#457=COLOUR_RGB('',0.800000011920929,0.800000011920929,0.800000011920929);
#458=CARTESIAN_POINT('',(2.60849768218386E-15,4.0,-42.6));
#459=CARTESIAN_POINT('',(2.63299061816681E-15,3.76905989232415,-43.0));
#460=CARTESIAN_POINT('',(2.14502643369939E-15,3.88452994616208,-42.8));
#461=VECTOR('',#505,1.0);
#462=CARTESIAN_POINT('',(3.0983564018428E-15,-4.0,-42.6));
#463=AXIS2_PLACEMENT_3D('',#506,#507,#508);
#464=CARTESIAN_POINT('',(3.09456733145975E-15,-3.76905989232415,-43.0));
#465=CARTESIAN_POINT('',(3.09646186665128E-15,-3.88452994616207,-42.8));
#466=VECTOR('',#509,1.0);
#467=AXIS2_PLACEMENT_3D('',#510,#511,#512);
#468=COLOUR_RGB('',0.800000011920929,0.800000011920929,0.800000011920929);
#469=CARTESIAN_POINT('',(1.22464679914735E-16,4.0,-2.0));
#470=CARTESIAN_POINT('',(8.75622461390358E-16,4.0,-22.3));
#471=VECTOR('',#513,1.0);
#472=CARTESIAN_POINT('',(6.12323399573676E-16,-4.0,-2.0));
#473=AXIS2_PLACEMENT_3D('',#514,#515,#516);
#474=CARTESIAN_POINT('',(1.85533990070824E-15,-4.0,-22.3));
#475=VECTOR('',#517,1.0);
#476=COLOUR_RGB('',0.800000011920929,0.800000011920929,0.800000011920929);
#477=AXIS2_PLACEMENT_3D('',#518,#519,#520);
#478=COLOUR_RGB('',0.800000011920929,0.800000011920929,0.800000011920929);
#479=AXIS2_PLACEMENT_3D('',#521,#522,#523);
#480=COLOUR_RGB('',0.800000011920929,0.800000011920929,0.800000011920929);
#481=AXIS2_PLACEMENT_3D('',#524,#525,#526);
#482=COLOUR_RGB('',0.800000011920929,0.800000011920929,0.800000011920929);
#483=DIRECTION('',(6.12323399573677E-17,0.0,-1.0));
#484=CARTESIAN_POINT('',(-2.17987130248229E-15,2.40801336910996E-16,35.6));
#485=DIRECTION('',(6.12323399573676E-17,0.0,-1.0));
#486=DIRECTION('',(0.0,1.0,0.0));
#487=DIRECTION('',(-6.12323399573677E-17,-0.0,1.0));
#488=CARTESIAN_POINT('',(1.22464679914735E-16,2.40801336910996E-16,-2.0));
#489=DIRECTION('',(6.12323399573676E-17,0.0,-1.0));
#490=DIRECTION('',(0.0,1.0,0.0));
#491=DIRECTION('',(-4.32978028117746E-17,0.707106781186548,-0.707106781186548));
#492=CARTESIAN_POINT('',(-2.20436423846524E-15,2.40801336910996E-16,36.0));
#493=DIRECTION('',(6.12323399573677E-17,0.0,-1.0));
#494=DIRECTION('',(0.0,1.0,0.0));
#495=DIRECTION('',(-1.29893408435324E-16,0.707106781186548,0.707106781186548));
#496=CARTESIAN_POINT('',(-2.20436423846524E-15,2.40801336910996E-16,36.0));
#497=DIRECTION('',(6.12323399573677E-17,0.0,-1.0));
#498=DIRECTION('',(0.0,1.0,0.0));
#499=CARTESIAN_POINT('',(-2.17987130248229E-15,2.40801336910996E-16,35.6));
#500=DIRECTION('',(6.12323399573676E-17,0.0,-1.0));
#501=DIRECTION('',(0.0,1.0,0.0));
#502=CARTESIAN_POINT('',(1.22464679914735E-16,2.40801336910996E-16,-2.0));
#503=DIRECTION('',(6.12323399573676E-17,0.0,-1.0));
#504=DIRECTION('',(0.0,1.0,0.0));
#505=DIRECTION('',(1.14261101893612E-16,-0.499999999999993,-0.866025403784443));
#506=CARTESIAN_POINT('',(2.60849768218386E-15,2.40801336910996E-16,-42.6));
#507=DIRECTION('',(6.12323399573676E-17,0.0,-1.0));
#508=DIRECTION('',(0.0,1.0,0.0));
#509=DIRECTION('',(8.20357802112111E-18,-0.499999999999993,0.866025403784443));
#510=CARTESIAN_POINT('',(2.63299061816681E-15,2.40801336910996E-16,-43.0));
#511=DIRECTION('',(6.12323399573677E-17,0.0,-1.0));
#512=DIRECTION('',(0.0,1.0,0.0));
#513=DIRECTION('',(6.12323399573677E-17,0.0,-1.0));
#514=CARTESIAN_POINT('',(1.22464679914735E-16,2.40801336910996E-16,-2.0));
#515=DIRECTION('',(6.12323399573676E-17,0.0,-1.0));
#516=DIRECTION('',(0.0,1.0,0.0));
#517=DIRECTION('',(-6.12323399573677E-17,-0.0,1.0));
#518=CARTESIAN_POINT('',(1.22464679914735E-16,2.40801336910996E-16,-2.0));
#519=DIRECTION('',(6.12323399573676E-17,0.0,-1.0));
#520=DIRECTION('',(0.0,1.0,0.0));
#521=CARTESIAN_POINT('',(2.60849768218386E-15,2.40801336910996E-16,-42.6));
#522=DIRECTION('',(6.12323399573676E-17,0.0,-1.0));
#523=DIRECTION('',(0.0,1.0,0.0));
#524=CARTESIAN_POINT('',(2.63299061816681E-15,2.40801336910996E-16,-43.0));
#525=DIRECTION('',(6.12323399573677E-17,0.0,-1.0));
#526=DIRECTION('',(0.0,1.0,0.0));
#527=DIRECTION('',(0.0,0.0,1.0));
#528=DIRECTION('',(1.0,0.0,0.0));
#529=CARTESIAN_POINT('',(0.0,0.0,36.000000));
#530=AXIS2_PLACEMENT_3D('PCS', #529,#527,#528);
#531=CARTESIAN_POINT('',(0.0,0.0,0.000000));
#532=AXIS2_PLACEMENT_3D('MCS', #531,#527,#528);
#533=CARTESIAN_POINT('',(0.0,0.0,-43.000000));
#534=AXIS2_PLACEMENT_3D('CIP', #533,#527,#528);
ENDSEC;
END-ISO-10303-21;
