ISO-10303-21;
HEADER;
FILE_DESCRIPTION(('STEP AP214'),'1');
FILE_NAME('607835912-000-00-E43.stp','2022-11-14T08:40:46',(' '),(' '),'Spatial InterOp 3D',' ',' ');
FILE_SCHEMA(('AUTOMOTIVE_DESIGN { 1 0 10303 214 1 1 1 1 }'));
ENDSEC;
DATA;
#1=MECHANICAL_DESIGN_GEOMETRIC_PRESENTATION_REPRESENTATION(' ',(#12,#13,#14,#15,#16,#17,#18,#19,#20,#21,#22,#23,#24,#25,#26),#8);
#2=PRODUCT_DEFINITION_CONTEXT('',#27,'design');
#3=APPLICATION_PROTOCOL_DEFINITION('INTERNATIONAL STANDARD','automotive_design',1994,#27);
#4=PRODUCT_CATEGORY_RELATIONSHIP('NONE','NONE',#28,#29);
#5=SHAPE_DEFINITION_REPRESENTATION(#30,#31);
#6=SHAPE_DEFINITION_REPRESENTATION(#30,#32);
#7=SHAPE_DEFINITION_REPRESENTATION(#30,#33);
#8= (GEOMETRIC_REPRESENTATION_CONTEXT(3)GLOBAL_UNCERTAINTY_ASSIGNED_CONTEXT((#36))GLOBAL_UNIT_ASSIGNED_CONTEXT((#38,#39,#40))REPRESENTATION_CONTEXT('NONE','WORKSPACE'));
#12=STYLED_ITEM('',(#42),#43);
#13=STYLED_ITEM('',(#44),#45);
#14=STYLED_ITEM('',(#46),#47);
#15=STYLED_ITEM('',(#48),#49);
#16=STYLED_ITEM('',(#50),#51);
#17=STYLED_ITEM('',(#52),#53);
#18=STYLED_ITEM('',(#54),#55);
#19=STYLED_ITEM('',(#56),#57);
#20=STYLED_ITEM('',(#58),#59);
#21=STYLED_ITEM('',(#60),#61);
#22=STYLED_ITEM('',(#62),#63);
#23=STYLED_ITEM('',(#64),#65);
#24=STYLED_ITEM('',(#66),#67);
#25=STYLED_ITEM('',(#68),#69);
#26=STYLED_ITEM('',(#70),#71);
#27=APPLICATION_CONTEXT(' ');
#28=PRODUCT_CATEGORY('part','NONE');
#29=PRODUCT_RELATED_PRODUCT_CATEGORY('detail',' ',(#72));
#30=PRODUCT_DEFINITION_SHAPE('NONE','NONE',#73);
#31=ADVANCED_BREP_SHAPE_REPRESENTATION('1',(#74,#75),#8);
#32=ADVANCED_BREP_SHAPE_REPRESENTATION('2',(#76,#77),#8);
#33=GEOMETRICALLY_BOUNDED_SURFACE_SHAPE_REPRESENTATION('3',(#78,#79),#8);
#36=UNCERTAINTY_MEASURE_WITH_UNIT(LENGTH_MEASURE(1.0E-06),#38,'','');
#38= (CONVERSION_BASED_UNIT('MILLIMETRE',#82)LENGTH_UNIT()NAMED_UNIT(#85));
#39= (NAMED_UNIT(#87)PLANE_ANGLE_UNIT()SI_UNIT($,.RADIAN.));
#40= (NAMED_UNIT(#87)SOLID_ANGLE_UNIT()SI_UNIT($,.STERADIAN.));
#42=PRESENTATION_STYLE_ASSIGNMENT((#93));
#43=COMPOSITE_CURVE('',(#94),.U.);
#44=PRESENTATION_STYLE_ASSIGNMENT((#95));
#45=COMPOSITE_CURVE('',(#96,#97,#98,#99,#100),.U.);
#46=PRESENTATION_STYLE_ASSIGNMENT((#101));
#47=ADVANCED_FACE('',(#102),#103,.T.);
#48=PRESENTATION_STYLE_ASSIGNMENT((#104));
#49=ADVANCED_FACE('',(#105),#106,.T.);
#50=PRESENTATION_STYLE_ASSIGNMENT((#107));
#51=ADVANCED_FACE('',(#108),#109,.T.);
#52=PRESENTATION_STYLE_ASSIGNMENT((#110));
#53=ADVANCED_FACE('',(#111),#112,.T.);
#54=PRESENTATION_STYLE_ASSIGNMENT((#113));
#55=ADVANCED_FACE('',(#114),#115,.T.);
#56=PRESENTATION_STYLE_ASSIGNMENT((#116));
#57=ADVANCED_FACE('',(#117),#118,.T.);
#58=PRESENTATION_STYLE_ASSIGNMENT((#119));
#59=COMPOSITE_CURVE('',(#120,#121,#122,#123,#124),.U.);
#60=PRESENTATION_STYLE_ASSIGNMENT((#125));
#61=ADVANCED_FACE('',(#126),#127,.T.);
#62=PRESENTATION_STYLE_ASSIGNMENT((#128));
#63=ADVANCED_FACE('',(#129),#130,.T.);
#64=PRESENTATION_STYLE_ASSIGNMENT((#131));
#65=ADVANCED_FACE('',(#132),#133,.T.);
#66=PRESENTATION_STYLE_ASSIGNMENT((#134));
#67=ADVANCED_FACE('',(#135),#136,.T.);
#68=PRESENTATION_STYLE_ASSIGNMENT((#137));
#69=ADVANCED_FACE('',(#138),#139,.T.);
#70=PRESENTATION_STYLE_ASSIGNMENT((#140));
#71=ADVANCED_FACE('',(#141),#142,.T.);
#72=PRODUCT('1','','PART--DESC',(#143));
#73=PRODUCT_DEFINITION('','NONE',#144,#2);
#74=MANIFOLD_SOLID_BREP('1',#145);
#75=AXIS2_PLACEMENT_3D('',#146,#147,#148);
#76=MANIFOLD_SOLID_BREP('2',#149);
#77=AXIS2_PLACEMENT_3D('',#150,#151,#152);
#78=GEOMETRIC_SET('3',(#43,#45,#59));
#79=AXIS2_PLACEMENT_3D('',#153,#154,#155);
#82=LENGTH_MEASURE_WITH_UNIT(LENGTH_MEASURE(1.0),#156);
#85=DIMENSIONAL_EXPONENTS(1.0,0.0,0.0,0.0,0.0,0.0,0.0);
#87=DIMENSIONAL_EXPONENTS(0.0,0.0,0.0,0.0,0.0,0.0,0.0);
#93=CURVE_STYLE('',#157,POSITIVE_LENGTH_MEASURE(1.0E-06),#158);
#94=COMPOSITE_CURVE_SEGMENT(.CONTINUOUS.,.T.,#159);
#95=CURVE_STYLE('',#160,POSITIVE_LENGTH_MEASURE(1.0E-06),#161);
#96=COMPOSITE_CURVE_SEGMENT(.CONTINUOUS.,.T.,#162);
#97=COMPOSITE_CURVE_SEGMENT(.CONTINUOUS.,.T.,#163);
#98=COMPOSITE_CURVE_SEGMENT(.CONTINUOUS.,.T.,#164);
#99=COMPOSITE_CURVE_SEGMENT(.CONTINUOUS.,.T.,#165);
#100=COMPOSITE_CURVE_SEGMENT(.CONTINUOUS.,.T.,#166);
#101=SURFACE_STYLE_USAGE(.BOTH.,#167);
#102=FACE_OUTER_BOUND('',#168,.T.);
#103=CYLINDRICAL_SURFACE('',#169,6.00000000000009);
#104=SURFACE_STYLE_USAGE(.BOTH.,#170);
#105=FACE_OUTER_BOUND('',#171,.T.);
#106=CONICAL_SURFACE('',#172,5.40000000000026,0.785398163397437);
#107=SURFACE_STYLE_USAGE(.BOTH.,#173);
#108=FACE_OUTER_BOUND('',#174,.T.);
#109=PLANE('',#175);
#110=SURFACE_STYLE_USAGE(.BOTH.,#176);
#111=FACE_OUTER_BOUND('',#177,.T.);
#112=CONICAL_SURFACE('',#178,5.40000000000026,0.785398163397437);
#113=SURFACE_STYLE_USAGE(.BOTH.,#179);
#114=FACE_OUTER_BOUND('',#180,.T.);
#115=CYLINDRICAL_SURFACE('',#181,6.00000000000009);
#116=SURFACE_STYLE_USAGE(.BOTH.,#182);
#117=FACE_OUTER_BOUND('',#183,.T.);
#118=PLANE('',#184);
#119=CURVE_STYLE('',#185,POSITIVE_LENGTH_MEASURE(1.0E-06),#186);
#120=COMPOSITE_CURVE_SEGMENT(.CONTINUOUS.,.T.,#187);
#121=COMPOSITE_CURVE_SEGMENT(.CONTINUOUS.,.T.,#188);
#122=COMPOSITE_CURVE_SEGMENT(.CONTINUOUS.,.T.,#189);
#123=COMPOSITE_CURVE_SEGMENT(.CONTINUOUS.,.T.,#190);
#124=COMPOSITE_CURVE_SEGMENT(.CONTINUOUS.,.T.,#191);
#125=SURFACE_STYLE_USAGE(.BOTH.,#192);
#126=FACE_OUTER_BOUND('',#193,.T.);
#127=CONICAL_SURFACE('',#194,5.69999999999999,0.785398163397306);
#128=SURFACE_STYLE_USAGE(.BOTH.,#195);
#129=FACE_OUTER_BOUND('',#196,.T.);
#130=CYLINDRICAL_SURFACE('',#197,5.99999999999991);
#131=SURFACE_STYLE_USAGE(.BOTH.,#198);
#132=FACE_OUTER_BOUND('',#199,.T.);
#133=PLANE('',#200);
#134=SURFACE_STYLE_USAGE(.BOTH.,#201);
#135=FACE_OUTER_BOUND('',#202,.T.);
#136=CYLINDRICAL_SURFACE('',#203,5.99999999999991);
#137=SURFACE_STYLE_USAGE(.BOTH.,#204);
#138=FACE_OUTER_BOUND('',#205,.T.);
#139=CONICAL_SURFACE('',#206,5.69999999999999,0.785398163397306);
#140=SURFACE_STYLE_USAGE(.BOTH.,#207);
#141=FACE_OUTER_BOUND('',#208,.T.);
#142=PLANE('',#209);
#143=PRODUCT_CONTEXT('',#27,'mechanical');
#144=PRODUCT_DEFINITION_FORMATION_WITH_SPECIFIED_SOURCE(' ','NONE',#72,.NOT_KNOWN.);
#145=CLOSED_SHELL('',(#47,#49,#51,#53,#55,#57));
#146=CARTESIAN_POINT('',(0.0,0.0,0.0));
#147=DIRECTION('',(0.0,0.0,1.0));
#148=DIRECTION('',(1.0,0.0,0.0));
#149=CLOSED_SHELL('',(#61,#63,#65,#67,#69,#71));
#150=CARTESIAN_POINT('',(0.0,0.0,0.0));
#151=DIRECTION('',(0.0,0.0,1.0));
#152=DIRECTION('',(1.0,0.0,0.0));
#153=CARTESIAN_POINT('',(0.0,0.0,0.0));
#154=DIRECTION('',(0.0,0.0,1.0));
#155=DIRECTION('',(1.0,0.0,0.0));
#156= (NAMED_UNIT(#85)LENGTH_UNIT()SI_UNIT(.MILLI.,.METRE.));
#157=DRAUGHTING_PRE_DEFINED_CURVE_FONT('continuous');
#158=COLOUR_RGB('',0.0,1.0,0.0);
#159=TRIMMED_CURVE('',#211,(PARAMETER_VALUE(0.0)),(PARAMETER_VALUE(6.00000000000014)),.T.,.UNSPECIFIED.);
#160=DRAUGHTING_PRE_DEFINED_CURVE_FONT('continuous');
#161=COLOUR_RGB('',0.498039215803146,0.498039215803146,0.498039215803146);
#162=TRIMMED_CURVE('',#212,(PARAMETER_VALUE(0.0)),(PARAMETER_VALUE(5.99999999999991)),.T.,.UNSPECIFIED.);
#163=TRIMMED_CURVE('',#213,(PARAMETER_VALUE(0.0)),(PARAMETER_VALUE(50.7999999999996)),.T.,.UNSPECIFIED.);
#164=TRIMMED_CURVE('',#214,(PARAMETER_VALUE(0.0)),(PARAMETER_VALUE(1.69705627484772)),.T.,.UNSPECIFIED.);
#165=TRIMMED_CURVE('',#215,(PARAMETER_VALUE(0.0)),(PARAMETER_VALUE(4.80000000000027)),.T.,.UNSPECIFIED.);
#166=TRIMMED_CURVE('',#216,(PARAMETER_VALUE(0.0)),(PARAMETER_VALUE(51.9999999825623)),.T.,.UNSPECIFIED.);
#167=SURFACE_SIDE_STYLE('',(#217));
#168=EDGE_LOOP('',(#218,#219,#220,#221));
#169=AXIS2_PLACEMENT_3D('',#222,#223,#224);
#170=SURFACE_SIDE_STYLE('',(#225));
#171=EDGE_LOOP('',(#226,#227,#228,#229));
#172=AXIS2_PLACEMENT_3D('',#230,#231,#232);
#173=SURFACE_SIDE_STYLE('',(#233));
#174=EDGE_LOOP('',(#234,#235));
#175=AXIS2_PLACEMENT_3D('',#236,#237,#238);
#176=SURFACE_SIDE_STYLE('',(#239));
#177=EDGE_LOOP('',(#240,#241,#242,#243));
#178=AXIS2_PLACEMENT_3D('',#244,#245,#246);
#179=SURFACE_SIDE_STYLE('',(#247));
#180=EDGE_LOOP('',(#248,#249,#250,#251));
#181=AXIS2_PLACEMENT_3D('',#252,#253,#254);
#182=SURFACE_SIDE_STYLE('',(#255));
#183=EDGE_LOOP('',(#256,#257));
#184=AXIS2_PLACEMENT_3D('',#258,#259,#260);
#185=DRAUGHTING_PRE_DEFINED_CURVE_FONT('continuous');
#186=COLOUR_RGB('',0.0,0.0,1.0);
#187=TRIMMED_CURVE('',#261,(PARAMETER_VALUE(0.0)),(PARAMETER_VALUE(5.40000000000022)),.T.,.UNSPECIFIED.);
#188=TRIMMED_CURVE('',#262,(PARAMETER_VALUE(0.0)),(PARAMETER_VALUE(0.848528137423769)),.T.,.UNSPECIFIED.);
#189=TRIMMED_CURVE('',#263,(PARAMETER_VALUE(0.0)),(PARAMETER_VALUE(47.4)),.T.,.UNSPECIFIED.);
#190=TRIMMED_CURVE('',#264,(PARAMETER_VALUE(0.0)),(PARAMETER_VALUE(5.99999999999991)),.T.,.UNSPECIFIED.);
#191=TRIMMED_CURVE('',#265,(PARAMETER_VALUE(0.0)),(PARAMETER_VALUE(48.0000000174377)),.T.,.UNSPECIFIED.);
#192=SURFACE_SIDE_STYLE('',(#266));
#193=EDGE_LOOP('',(#267,#268,#269,#270));
#194=AXIS2_PLACEMENT_3D('',#271,#272,#273);
#195=SURFACE_SIDE_STYLE('',(#274));
#196=EDGE_LOOP('',(#275,#276,#277,#278));
#197=AXIS2_PLACEMENT_3D('',#279,#280,#281);
#198=SURFACE_SIDE_STYLE('',(#282));
#199=EDGE_LOOP('',(#283,#284));
#200=AXIS2_PLACEMENT_3D('',#285,#286,#287);
#201=SURFACE_SIDE_STYLE('',(#288));
#202=EDGE_LOOP('',(#289,#290,#291,#292));
#203=AXIS2_PLACEMENT_3D('',#293,#294,#295);
#204=SURFACE_SIDE_STYLE('',(#296));
#205=EDGE_LOOP('',(#297,#298,#299,#300));
#206=AXIS2_PLACEMENT_3D('',#301,#302,#303);
#207=SURFACE_SIDE_STYLE('',(#304));
#208=EDGE_LOOP('',(#305,#306));
#209=AXIS2_PLACEMENT_3D('',#307,#308,#309);
#211=LINE('',#310,#311);
#212=LINE('',#312,#313);
#213=LINE('',#314,#315);
#214=LINE('',#316,#317);
#215=LINE('',#318,#319);
#216=LINE('',#320,#321);
#217=SURFACE_STYLE_FILL_AREA(#322);
#218=ORIENTED_EDGE('',*,*,#323,.F.);
#219=ORIENTED_EDGE('',*,*,#324,.T.);
#220=ORIENTED_EDGE('',*,*,#325,.F.);
#221=ORIENTED_EDGE('',*,*,#326,.F.);
#222=CARTESIAN_POINT('',(-1.12667505521556E-15,0.0,18.3999999999999));
#223=DIRECTION('',(6.12323399573676E-17,0.0,-1.0));
#224=DIRECTION('',(0.0,1.0,0.0));
#225=SURFACE_STYLE_FILL_AREA(#327);
#226=ORIENTED_EDGE('',*,*,#328,.F.);
#227=ORIENTED_EDGE('',*,*,#329,.T.);
#228=ORIENTED_EDGE('',*,*,#330,.F.);
#229=ORIENTED_EDGE('',*,*,#324,.F.);
#230=CARTESIAN_POINT('',(-2.71871589410711E-15,0.0,44.3999999999997));
#231=DIRECTION('',(6.12323399573677E-17,-0.0,-1.0));
#232=DIRECTION('',(0.0,1.0,0.0));
#233=SURFACE_STYLE_FILL_AREA(#331);
#234=ORIENTED_EDGE('',*,*,#329,.F.);
#235=ORIENTED_EDGE('',*,*,#332,.F.);
#236=CARTESIAN_POINT('',(-2.75545529808154E-15,2.40000000000013,44.9999999999999));
#237=DIRECTION('',(-6.12323399573677E-17,8.28966525053404E-14,1.0));
#238=DIRECTION('',(-5.07595600753478E-30,-1.0,8.28966525053404E-14));
#239=SURFACE_STYLE_FILL_AREA(#333);
#240=ORIENTED_EDGE('',*,*,#328,.T.);
#241=ORIENTED_EDGE('',*,*,#334,.F.);
#242=ORIENTED_EDGE('',*,*,#330,.T.);
#243=ORIENTED_EDGE('',*,*,#332,.T.);
#244=CARTESIAN_POINT('',(-2.71871589410711E-15,0.0,44.3999999999997));
#245=DIRECTION('',(6.12323399573677E-17,-0.0,-1.0));
#246=DIRECTION('',(0.0,1.0,0.0));
#247=SURFACE_STYLE_FILL_AREA(#335);
#248=ORIENTED_EDGE('',*,*,#323,.T.);
#249=ORIENTED_EDGE('',*,*,#336,.F.);
#250=ORIENTED_EDGE('',*,*,#325,.T.);
#251=ORIENTED_EDGE('',*,*,#334,.T.);
#252=CARTESIAN_POINT('',(-1.12667505521556E-15,0.0,18.3999999999999));
#253=DIRECTION('',(6.12323399573676E-17,0.0,-1.0));
#254=DIRECTION('',(0.0,1.0,0.0));
#255=SURFACE_STYLE_FILL_AREA(#337);
#256=ORIENTED_EDGE('',*,*,#326,.T.);
#257=ORIENTED_EDGE('',*,*,#336,.T.);
#258=CARTESIAN_POINT('',(4.28626379167692E-16,2.99999999999996,-6.99999999128106));
#259=DIRECTION('',(6.12323399573677E-17,-2.90627610866072E-09,-1.0));
#260=DIRECTION('',(1.77958086695489E-25,1.0,-2.90627610866072E-09));
#261=LINE('',#338,#339);
#262=LINE('',#340,#341);
#263=LINE('',#342,#343);
#264=LINE('',#344,#345);
#265=LINE('',#346,#347);
#266=SURFACE_STYLE_FILL_AREA(#348);
#267=ORIENTED_EDGE('',*,*,#349,.F.);
#268=ORIENTED_EDGE('',*,*,#350,.T.);
#269=ORIENTED_EDGE('',*,*,#351,.F.);
#270=ORIENTED_EDGE('',*,*,#352,.F.);
#271=CARTESIAN_POINT('',(3.349408995668E-15,0.0,-54.6999999999999));
#272=DIRECTION('',(-6.12323399573677E-17,-0.0,1.0));
#273=DIRECTION('',(0.0,1.0,0.0));
#274=SURFACE_STYLE_FILL_AREA(#353);
#275=ORIENTED_EDGE('',*,*,#354,.F.);
#276=ORIENTED_EDGE('',*,*,#355,.T.);
#277=ORIENTED_EDGE('',*,*,#356,.F.);
#278=ORIENTED_EDGE('',*,*,#350,.F.);
#279=CARTESIAN_POINT('',(1.87983283669118E-15,0.0,-30.6999999999999));
#280=DIRECTION('',(6.12323399573677E-17,0.0,-1.0));
#281=DIRECTION('',(0.0,1.0,0.0));
#282=SURFACE_STYLE_FILL_AREA(#357);
#283=ORIENTED_EDGE('',*,*,#355,.F.);
#284=ORIENTED_EDGE('',*,*,#358,.F.);
#285=CARTESIAN_POINT('',(4.28626379167692E-16,2.99999999999996,-6.99999999128106));
#286=DIRECTION('',(-6.12323399573677E-17,2.90627610866072E-09,1.0));
#287=DIRECTION('',(-1.77958086695489E-25,-1.0,2.90627610866072E-09));
#288=SURFACE_STYLE_FILL_AREA(#359);
#289=ORIENTED_EDGE('',*,*,#354,.T.);
#290=ORIENTED_EDGE('',*,*,#360,.F.);
#291=ORIENTED_EDGE('',*,*,#356,.T.);
#292=ORIENTED_EDGE('',*,*,#358,.T.);
#293=CARTESIAN_POINT('',(1.87983283669118E-15,0.0,-30.6999999999999));
#294=DIRECTION('',(6.12323399573677E-17,0.0,-1.0));
#295=DIRECTION('',(0.0,1.0,0.0));
#296=SURFACE_STYLE_FILL_AREA(#361);
#297=ORIENTED_EDGE('',*,*,#349,.T.);
#298=ORIENTED_EDGE('',*,*,#362,.F.);
#299=ORIENTED_EDGE('',*,*,#351,.T.);
#300=ORIENTED_EDGE('',*,*,#360,.T.);
#301=CARTESIAN_POINT('',(3.349408995668E-15,0.0,-54.6999999999999));
#302=DIRECTION('',(-6.12323399573677E-17,-0.0,1.0));
#303=DIRECTION('',(0.0,1.0,0.0));
#304=SURFACE_STYLE_FILL_AREA(#363);
#305=ORIENTED_EDGE('',*,*,#352,.T.);
#306=ORIENTED_EDGE('',*,*,#362,.T.);
#307=CARTESIAN_POINT('',(3.36777869765522E-15,2.69999999999995,-54.9999999999999));
#308=DIRECTION('',(6.12323399573677E-17,0.0,-1.0));
#309=DIRECTION('',(0.0,1.0,0.0));
#310=CARTESIAN_POINT('',(0.0,6.0,0.0));
#311=VECTOR('',#364,1.0);
#312=CARTESIAN_POINT('',(4.28626378633818E-16,6.93889390390723E-18,-6.99999998256223));
#313=VECTOR('',#365,1.0);
#314=CARTESIAN_POINT('',(4.28626379701567E-16,5.99999999999991,-6.99999999999989));
#315=VECTOR('',#366,1.0);
#316=CARTESIAN_POINT('',(-2.68197649013268E-15,6.00000000000026,43.7999999999997));
#317=VECTOR('',#367,1.0);
#318=CARTESIAN_POINT('',(-2.75545529808153E-15,4.80000000000027,44.9999999999997));
#319=VECTOR('',#368,1.0);
#320=CARTESIAN_POINT('',(-2.75545529808155E-15,0.0,45.0000000000001));
#321=VECTOR('',#369,1.0);
#322=FILL_AREA_STYLE('',(#370));
#323=EDGE_CURVE('',#371,#372,#373,.T.);
#324=EDGE_CURVE('',#371,#374,#375,.T.);
#325=EDGE_CURVE('',#376,#374,#377,.T.);
#326=EDGE_CURVE('',#372,#376,#378,.T.);
#327=FILL_AREA_STYLE('',(#379));
#328=EDGE_CURVE('',#380,#371,#381,.T.);
#329=EDGE_CURVE('',#380,#382,#383,.T.);
#330=EDGE_CURVE('',#374,#382,#384,.T.);
#331=FILL_AREA_STYLE('',(#385));
#332=EDGE_CURVE('',#382,#380,#386,.T.);
#333=FILL_AREA_STYLE('',(#387));
#334=EDGE_CURVE('',#374,#371,#388,.T.);
#335=FILL_AREA_STYLE('',(#389));
#336=EDGE_CURVE('',#376,#372,#390,.T.);
#337=FILL_AREA_STYLE('',(#391));
#338=CARTESIAN_POINT('',(3.36777869765522E-15,-1.56319401867222E-13,-54.9999999999999));
#339=VECTOR('',#392,1.0);
#340=CARTESIAN_POINT('',(3.36777869765522E-15,5.40000000000006,-54.9999999999999));
#341=VECTOR('',#393,1.0);
#342=CARTESIAN_POINT('',(3.33103929368079E-15,5.99999999999991,-54.3999999999999));
#343=VECTOR('',#394,1.0);
#344=CARTESIAN_POINT('',(4.28626379701567E-16,5.99999999999991,-6.99999999999989));
#345=VECTOR('',#395,1.0);
#346=CARTESIAN_POINT('',(4.28626378633818E-16,6.93889390390723E-18,-6.99999998256223));
#347=VECTOR('',#396,1.0);
#348=FILL_AREA_STYLE('',(#397));
#349=EDGE_CURVE('',#398,#399,#400,.T.);
#350=EDGE_CURVE('',#398,#401,#402,.T.);
#351=EDGE_CURVE('',#403,#401,#404,.T.);
#352=EDGE_CURVE('',#399,#403,#405,.T.);
#353=FILL_AREA_STYLE('',(#406));
#354=EDGE_CURVE('',#407,#398,#408,.T.);
#355=EDGE_CURVE('',#407,#409,#410,.T.);
#356=EDGE_CURVE('',#401,#409,#411,.T.);
#357=FILL_AREA_STYLE('',(#412));
#358=EDGE_CURVE('',#409,#407,#413,.T.);
#359=FILL_AREA_STYLE('',(#414));
#360=EDGE_CURVE('',#401,#398,#415,.T.);
#361=FILL_AREA_STYLE('',(#416));
#362=EDGE_CURVE('',#403,#399,#417,.T.);
#363=FILL_AREA_STYLE('',(#418));
#364=DIRECTION('',(-1.30524583050898E-30,-1.0,2.13162820728025E-14));
#365=DIRECTION('',(1.77958088011571E-25,1.0,-2.90627610866072E-09));
#366=DIRECTION('',(-6.12323399573677E-17,6.71378962922935E-15,1.0));
#367=DIRECTION('',(-4.32978028117753E-17,-0.707106781186539,0.707106781186556));
#368=DIRECTION('',(-5.01255366859157E-30,-1.0,8.28966525053404E-14));
#369=DIRECTION('',(6.12323399573677E-17,1.33440267427579E-19,-1.0));
#370=FILL_AREA_STYLE_COLOUR('',#419);
#371=VERTEX_POINT('',#420);
#372=VERTEX_POINT('',#421);
#373=LINE('',#422,#423);
#374=VERTEX_POINT('',#424);
#375=CIRCLE('',#425,6.00000000000025);
#376=VERTEX_POINT('',#426);
#377=LINE('',#427,#428);
#378=CIRCLE('',#429,5.99999999999991);
#379=FILL_AREA_STYLE_COLOUR('',#430);
#380=VERTEX_POINT('',#431);
#381=LINE('',#432,#433);
#382=VERTEX_POINT('',#434);
#383=CIRCLE('',#435,4.80000000000027);
#384=LINE('',#436,#437);
#385=FILL_AREA_STYLE_COLOUR('',#438);
#386=CIRCLE('',#439,4.80000000000027);
#387=FILL_AREA_STYLE_COLOUR('',#440);
#388=CIRCLE('',#441,6.00000000000025);
#389=FILL_AREA_STYLE_COLOUR('',#442);
#390=CIRCLE('',#443,5.99999999999991);
#391=FILL_AREA_STYLE_COLOUR('',#444);
#392=DIRECTION('',(0.0,1.0,0.0));
#393=DIRECTION('',(-4.32978028117809E-17,0.707106781186447,0.707106781186648));
#394=DIRECTION('',(-6.12323399573677E-17,0.0,1.0));
#395=DIRECTION('',(-1.77958088011571E-25,-1.0,2.90627610866072E-09));
#396=DIRECTION('',(6.12323399573677E-17,-3.25679876467364E-15,-1.0));
#397=FILL_AREA_STYLE_COLOUR('',#445);
#398=VERTEX_POINT('',#446);
#399=VERTEX_POINT('',#447);
#400=LINE('',#448,#449);
#401=VERTEX_POINT('',#450);
#402=CIRCLE('',#451,5.99999999999991);
#403=VERTEX_POINT('',#452);
#404=LINE('',#453,#454);
#405=CIRCLE('',#455,5.40000000000006);
#406=FILL_AREA_STYLE_COLOUR('',#456);
#407=VERTEX_POINT('',#457);
#408=LINE('',#458,#459);
#409=VERTEX_POINT('',#460);
#410=CIRCLE('',#461,5.99999999999991);
#411=LINE('',#462,#463);
#412=FILL_AREA_STYLE_COLOUR('',#464);
#413=CIRCLE('',#465,5.99999999999991);
#414=FILL_AREA_STYLE_COLOUR('',#466);
#415=CIRCLE('',#467,5.99999999999991);
#416=FILL_AREA_STYLE_COLOUR('',#468);
#417=CIRCLE('',#469,5.40000000000006);
#418=FILL_AREA_STYLE_COLOUR('',#470);
#419=COLOUR_RGB('',0.498039215803146,0.498039215803146,0.498039215803146);
#420=CARTESIAN_POINT('',(-2.68197649013268E-15,6.00000000000026,43.7999999999997));
#421=CARTESIAN_POINT('',(4.28626379701567E-16,5.99999999999991,-6.99999999999989));
#422=CARTESIAN_POINT('',(-1.86146313470398E-15,6.00000000000009,18.3999999999999));
#423=VECTOR('',#471,1.0);
#424=CARTESIAN_POINT('',(-1.94718841064424E-15,-6.00000000000025,43.7999999999997));
#425=AXIS2_PLACEMENT_3D('',#472,#473,#474);
#426=CARTESIAN_POINT('',(1.16341445918997E-15,-5.99999999999991,-6.99999999999989));
#427=CARTESIAN_POINT('',(-3.91886975727137E-16,-6.00000000000009,18.3999999999999));
#428=VECTOR('',#475,1.0);
#429=AXIS2_PLACEMENT_3D('',#476,#477,#478);
#430=COLOUR_RGB('',0.498039215803146,0.498039215803146,0.498039215803146);
#431=CARTESIAN_POINT('',(-2.75545529808153E-15,4.80000000000027,44.9999999999997));
#432=CARTESIAN_POINT('',(-3.38002516564671E-15,5.40000000000026,44.3999999999997));
#433=VECTOR('',#479,1.0);
#434=CARTESIAN_POINT('',(-2.16762483449077E-15,-4.80000000000027,44.9999999999997));
#435=AXIS2_PLACEMENT_3D('',#480,#481,#482);
#436=CARTESIAN_POINT('',(-2.0574066225675E-15,-5.40000000000026,44.3999999999997));
#437=VECTOR('',#483,1.0);
#438=COLOUR_RGB('',0.498039215803146,0.498039215803146,0.498039215803146);
#439=AXIS2_PLACEMENT_3D('',#484,#485,#486);
#440=COLOUR_RGB('',0.498039215803146,0.498039215803146,0.498039215803146);
#441=AXIS2_PLACEMENT_3D('',#487,#488,#489);
#442=COLOUR_RGB('',0.498039215803146,0.498039215803146,0.498039215803146);
#443=AXIS2_PLACEMENT_3D('',#490,#491,#492);
#444=COLOUR_RGB('',0.498039215803146,0.498039215803146,0.498039215803146);
#445=COLOUR_RGB('',0.800000011920929,0.800000011920929,0.800000011920929);
#446=CARTESIAN_POINT('',(3.33103929368079E-15,5.99999999999991,-54.3999999999999));
#447=CARTESIAN_POINT('',(3.36777869765522E-15,5.40000000000006,-54.9999999999999));
#448=CARTESIAN_POINT('',(2.65136032015401E-15,5.69999999999999,-54.6999999999999));
#449=VECTOR('',#493,1.0);
#450=CARTESIAN_POINT('',(4.0658273731692E-15,-5.99999999999991,-54.3999999999999));
#451=AXIS2_PLACEMENT_3D('',#494,#495,#496);
#452=CARTESIAN_POINT('',(4.02908796919479E-15,-5.40000000000006,-54.9999999999999));
#453=CARTESIAN_POINT('',(4.04745767118199E-15,-5.69999999999999,-54.6999999999999));
#454=VECTOR('',#497,1.0);
#455=AXIS2_PLACEMENT_3D('',#498,#499,#500);
#456=COLOUR_RGB('',0.800000011920929,0.800000011920929,0.800000011920929);
#457=CARTESIAN_POINT('',(4.28626379701567E-16,5.99999999999991,-6.99999999999989));
#458=CARTESIAN_POINT('',(1.14504475720278E-15,5.99999999999991,-30.6999999999999));
#459=VECTOR('',#501,1.0);
#460=CARTESIAN_POINT('',(1.16341445918997E-15,-5.99999999999991,-6.99999999999989));
#461=AXIS2_PLACEMENT_3D('',#502,#503,#504);
#462=CARTESIAN_POINT('',(2.61462091617958E-15,-5.99999999999991,-30.6999999999999));
#463=VECTOR('',#505,1.0);
#464=COLOUR_RGB('',0.800000011920929,0.800000011920929,0.800000011920929);
#465=AXIS2_PLACEMENT_3D('',#506,#507,#508);
#466=COLOUR_RGB('',0.800000011920929,0.800000011920929,0.800000011920929);
#467=AXIS2_PLACEMENT_3D('',#509,#510,#511);
#468=COLOUR_RGB('',0.800000011920929,0.800000011920929,0.800000011920929);
#469=AXIS2_PLACEMENT_3D('',#512,#513,#514);
#470=COLOUR_RGB('',0.800000011920929,0.800000011920929,0.800000011920929);
#471=DIRECTION('',(6.12323399573677E-17,0.0,-1.0));
#472=CARTESIAN_POINT('',(-2.68197649013268E-15,0.0,43.7999999999997));
#473=DIRECTION('',(6.12323399573677E-17,0.0,-1.0));
#474=DIRECTION('',(0.0,1.0,0.0));
#475=DIRECTION('',(-6.12323399573677E-17,-0.0,1.0));
#476=CARTESIAN_POINT('',(4.28626379701567E-16,0.0,-6.99999999999989));
#477=DIRECTION('',(6.12323399573677E-17,0.0,-1.0));
#478=DIRECTION('',(0.0,1.0,0.0));
#479=DIRECTION('',(-4.32978028117731E-17,0.707106781186539,-0.707106781186556));
#480=CARTESIAN_POINT('',(-2.75545529808153E-15,0.0,44.9999999999997));
#481=DIRECTION('',(6.12323399573677E-17,0.0,-1.0));
#482=DIRECTION('',(0.0,1.0,0.0));
#483=DIRECTION('',(-1.29893408435323E-16,0.707106781186539,0.707106781186556));
#484=CARTESIAN_POINT('',(-2.75545529808153E-15,0.0,44.9999999999997));
#485=DIRECTION('',(6.12323399573677E-17,0.0,-1.0));
#486=DIRECTION('',(0.0,1.0,0.0));
#487=CARTESIAN_POINT('',(-2.68197649013268E-15,0.0,43.7999999999997));
#488=DIRECTION('',(6.12323399573677E-17,0.0,-1.0));
#489=DIRECTION('',(0.0,1.0,0.0));
#490=CARTESIAN_POINT('',(4.28626379701567E-16,0.0,-6.99999999999989));
#491=DIRECTION('',(6.12323399573677E-17,0.0,-1.0));
#492=DIRECTION('',(0.0,1.0,0.0));
#493=DIRECTION('',(1.29893408435318E-16,-0.707106781186447,-0.707106781186648));
#494=CARTESIAN_POINT('',(3.33103929368079E-15,0.0,-54.3999999999999));
#495=DIRECTION('',(6.12323399573677E-17,0.0,-1.0));
#496=DIRECTION('',(0.0,1.0,0.0));
#497=DIRECTION('',(4.32978028117562E-17,-0.707106781186447,0.707106781186648));
#498=CARTESIAN_POINT('',(3.36777869765522E-15,0.0,-54.9999999999999));
#499=DIRECTION('',(6.12323399573677E-17,0.0,-1.0));
#500=DIRECTION('',(0.0,1.0,0.0));
#501=DIRECTION('',(6.12323399573677E-17,0.0,-1.0));
#502=CARTESIAN_POINT('',(4.28626379701567E-16,0.0,-6.99999999999989));
#503=DIRECTION('',(6.12323399573677E-17,0.0,-1.0));
#504=DIRECTION('',(0.0,1.0,0.0));
#505=DIRECTION('',(-6.12323399573677E-17,-0.0,1.0));
#506=CARTESIAN_POINT('',(4.28626379701567E-16,0.0,-6.99999999999989));
#507=DIRECTION('',(6.12323399573677E-17,0.0,-1.0));
#508=DIRECTION('',(0.0,1.0,0.0));
#509=CARTESIAN_POINT('',(3.33103929368079E-15,0.0,-54.3999999999999));
#510=DIRECTION('',(6.12323399573677E-17,0.0,-1.0));
#511=DIRECTION('',(0.0,1.0,0.0));
#512=CARTESIAN_POINT('',(3.36777869765522E-15,0.0,-54.9999999999999));
#513=DIRECTION('',(6.12323399573677E-17,0.0,-1.0));
#514=DIRECTION('',(0.0,1.0,0.0));
#515=DIRECTION('',(0.0,0.0,1.0));
#516=DIRECTION('',(1.0,0.0,0.0));
#517=CARTESIAN_POINT('',(0.0,0.0,45.000000));
#518=AXIS2_PLACEMENT_3D('PCS', #517,#515,#516);
#519=CARTESIAN_POINT('',(0.0,0.0,0.000000));
#520=AXIS2_PLACEMENT_3D('MCS', #519,#515,#516);
#521=CARTESIAN_POINT('',(0.0,0.0,-55.000000));
#522=AXIS2_PLACEMENT_3D('CIP', #521,#515,#516);
ENDSEC;
END-ISO-10303-21;
