ISO-10303-21;
HEADER;
FILE_DESCRIPTION(('STEP AP214'),'1');
FILE_NAME('608037485-000-00-E43.stp','2024-01-08T12:47:59',(' '),(' '),'Spatial InterOp 3D',' ',' ');
FILE_SCHEMA(('AUTOMOTIVE_DESIGN { 1 0 10303 214 1 1 1 1 }'));
ENDSEC;
DATA;
#1=MECHANICAL_DESIGN_GEOMETRIC_PRESENTATION_REPRESENTATION(' ',(#12,#13,#14,#15,#16,#17,#18,#19,#20,#21,#22,#23,#24,#25,#26,#27,#28,#29),#8);
#2=PRODUCT_DEFINITION_CONTEXT('',#30,'design');
#3=APPLICATION_PROTOCOL_DEFINITION('INTERNATIONAL STANDARD','automotive_design',1994,#30);
#4=PRODUCT_CATEGORY_RELATIONSHIP('NONE','NONE',#31,#32);
#5=SHAPE_DEFINITION_REPRESENTATION(#33,#34);
#6=SHAPE_DEFINITION_REPRESENTATION(#33,#35);
#7=SHAPE_DEFINITION_REPRESENTATION(#33,#36);
#8= (GEOMETRIC_REPRESENTATION_CONTEXT(3)GLOBAL_UNCERTAINTY_ASSIGNED_CONTEXT((#39))GLOBAL_UNIT_ASSIGNED_CONTEXT((#41,#42,#43))REPRESENTATION_CONTEXT('NONE','WORKSPACE'));
#12=STYLED_ITEM('',(#45),#46);
#13=STYLED_ITEM('',(#47),#48);
#14=STYLED_ITEM('',(#49),#50);
#15=STYLED_ITEM('',(#51),#52);
#16=STYLED_ITEM('',(#53),#54);
#17=STYLED_ITEM('',(#55),#56);
#18=STYLED_ITEM('',(#57),#58);
#19=STYLED_ITEM('',(#59),#60);
#20=STYLED_ITEM('',(#61),#62);
#21=STYLED_ITEM('',(#63),#64);
#22=STYLED_ITEM('',(#65),#66);
#23=STYLED_ITEM('',(#67),#68);
#24=STYLED_ITEM('',(#69),#70);
#25=STYLED_ITEM('',(#71),#72);
#26=STYLED_ITEM('',(#73),#74);
#27=STYLED_ITEM('',(#75),#76);
#28=STYLED_ITEM('',(#77),#78);
#29=STYLED_ITEM('',(#79),#80);
#30=APPLICATION_CONTEXT(' ');
#31=PRODUCT_CATEGORY('part','NONE');
#32=PRODUCT_RELATED_PRODUCT_CATEGORY('detail',' ',(#81));
#33=PRODUCT_DEFINITION_SHAPE('NONE','NONE',#82);
#34=ADVANCED_BREP_SHAPE_REPRESENTATION('1',(#83,#84),#8);
#35=ADVANCED_BREP_SHAPE_REPRESENTATION('2',(#85,#86),#8);
#36=GEOMETRICALLY_BOUNDED_SURFACE_SHAPE_REPRESENTATION('3',(#87,#88),#8);
#39=UNCERTAINTY_MEASURE_WITH_UNIT(LENGTH_MEASURE(1.0E-06),#41,'','');
#41= (CONVERSION_BASED_UNIT('MILLIMETRE',#91)LENGTH_UNIT()NAMED_UNIT(#94));
#42= (NAMED_UNIT(#96)PLANE_ANGLE_UNIT()SI_UNIT($,.RADIAN.));
#43= (NAMED_UNIT(#96)SOLID_ANGLE_UNIT()SI_UNIT($,.STERADIAN.));
#45=PRESENTATION_STYLE_ASSIGNMENT((#102));
#46=COMPOSITE_CURVE('',(#103),.U.);
#47=PRESENTATION_STYLE_ASSIGNMENT((#104));
#48=COMPOSITE_CURVE('',(#105,#106,#107,#108,#109,#110,#111),.U.);
#49=PRESENTATION_STYLE_ASSIGNMENT((#112));
#50=ADVANCED_FACE('',(#113),#114,.T.);
#51=PRESENTATION_STYLE_ASSIGNMENT((#115));
#52=ADVANCED_FACE('',(#116),#117,.T.);
#53=PRESENTATION_STYLE_ASSIGNMENT((#118));
#54=ADVANCED_FACE('',(#119),#120,.T.);
#55=PRESENTATION_STYLE_ASSIGNMENT((#121));
#56=ADVANCED_FACE('',(#122),#123,.T.);
#57=PRESENTATION_STYLE_ASSIGNMENT((#124));
#58=ADVANCED_FACE('',(#125),#126,.T.);
#59=PRESENTATION_STYLE_ASSIGNMENT((#127));
#60=ADVANCED_FACE('',(#128),#129,.T.);
#61=PRESENTATION_STYLE_ASSIGNMENT((#130));
#62=ADVANCED_FACE('',(#131),#132,.T.);
#63=PRESENTATION_STYLE_ASSIGNMENT((#133));
#64=ADVANCED_FACE('',(#134),#135,.T.);
#65=PRESENTATION_STYLE_ASSIGNMENT((#136));
#66=ADVANCED_FACE('',(#137),#138,.T.);
#67=PRESENTATION_STYLE_ASSIGNMENT((#139));
#68=ADVANCED_FACE('',(#140),#141,.T.);
#69=PRESENTATION_STYLE_ASSIGNMENT((#142));
#70=COMPOSITE_CURVE('',(#143,#144,#145,#146),.U.);
#71=PRESENTATION_STYLE_ASSIGNMENT((#147));
#72=ADVANCED_FACE('',(#148),#149,.T.);
#73=PRESENTATION_STYLE_ASSIGNMENT((#150));
#74=ADVANCED_FACE('',(#151),#152,.T.);
#75=PRESENTATION_STYLE_ASSIGNMENT((#153));
#76=ADVANCED_FACE('',(#154),#155,.T.);
#77=PRESENTATION_STYLE_ASSIGNMENT((#156));
#78=ADVANCED_FACE('',(#157),#158,.T.);
#79=PRESENTATION_STYLE_ASSIGNMENT((#159));
#80=ADVANCED_FACE('',(#160),#161,.T.);
#81=PRODUCT('1','','PART--DESC',(#162));
#82=PRODUCT_DEFINITION('','NONE',#163,#2);
#83=MANIFOLD_SOLID_BREP('1',#164);
#84=AXIS2_PLACEMENT_3D('',#165,#166,#167);
#85=MANIFOLD_SOLID_BREP('2',#168);
#86=AXIS2_PLACEMENT_3D('',#169,#170,#171);
#87=GEOMETRIC_SET('3',(#46,#48,#70));
#88=AXIS2_PLACEMENT_3D('',#172,#173,#174);
#91=LENGTH_MEASURE_WITH_UNIT(LENGTH_MEASURE(1.0),#175);
#94=DIMENSIONAL_EXPONENTS(1.0,0.0,0.0,0.0,0.0,0.0,0.0);
#96=DIMENSIONAL_EXPONENTS(0.0,0.0,0.0,0.0,0.0,0.0,0.0);
#102=CURVE_STYLE('',#176,POSITIVE_LENGTH_MEASURE(1.0E-06),#177);
#103=COMPOSITE_CURVE_SEGMENT(.CONTINUOUS.,.T.,#178);
#104=CURVE_STYLE('',#179,POSITIVE_LENGTH_MEASURE(1.0E-06),#180);
#105=COMPOSITE_CURVE_SEGMENT(.CONTINUOUS.,.T.,#181);
#106=COMPOSITE_CURVE_SEGMENT(.CONTINUOUS.,.T.,#182);
#107=COMPOSITE_CURVE_SEGMENT(.CONTINUOUS.,.T.,#183);
#108=COMPOSITE_CURVE_SEGMENT(.CONTINUOUS.,.T.,#184);
#109=COMPOSITE_CURVE_SEGMENT(.CONTINUOUS.,.T.,#185);
#110=COMPOSITE_CURVE_SEGMENT(.CONTINUOUS.,.T.,#186);
#111=COMPOSITE_CURVE_SEGMENT(.CONTINUOUS.,.T.,#187);
#112=SURFACE_STYLE_USAGE(.BOTH.,#188);
#113=FACE_OUTER_BOUND('',#189,.T.);
#114=CONICAL_SURFACE('',#190,5.52000000000001,0.785398163397448);
#115=SURFACE_STYLE_USAGE(.BOTH.,#191);
#116=FACE_OUTER_BOUND('',#192,.T.);
#117=CYLINDRICAL_SURFACE('',#193,5.79999999999996);
#118=SURFACE_STYLE_USAGE(.BOTH.,#194);
#119=FACE_OUTER_BOUND('',#195,.T.);
#120=CONICAL_SURFACE('',#196,5.89999999999998,0.785398163397448);
#121=SURFACE_STYLE_USAGE(.BOTH.,#197);
#122=FACE_OUTER_BOUND('',#198,.T.);
#123=CYLINDRICAL_SURFACE('',#199,6.0);
#124=SURFACE_STYLE_USAGE(.BOTH.,#200);
#125=FACE_OUTER_BOUND('',#201,.T.);
#126=CYLINDRICAL_SURFACE('',#202,6.0);
#127=SURFACE_STYLE_USAGE(.BOTH.,#203);
#128=FACE_OUTER_BOUND('',#204,.T.);
#129=CONICAL_SURFACE('',#205,5.89999999999998,0.785398163397448);
#130=SURFACE_STYLE_USAGE(.BOTH.,#206);
#131=FACE_OUTER_BOUND('',#207,.T.);
#132=CYLINDRICAL_SURFACE('',#208,5.79999999999996);
#133=SURFACE_STYLE_USAGE(.BOTH.,#209);
#134=FACE_OUTER_BOUND('',#210,.T.);
#135=PLANE('',#211);
#136=SURFACE_STYLE_USAGE(.BOTH.,#212);
#137=FACE_OUTER_BOUND('',#213,.T.);
#138=PLANE('',#214);
#139=SURFACE_STYLE_USAGE(.BOTH.,#215);
#140=FACE_OUTER_BOUND('',#216,.T.);
#141=CONICAL_SURFACE('',#217,5.52000000000001,0.785398163397448);
#142=CURVE_STYLE('',#218,POSITIVE_LENGTH_MEASURE(1.0E-06),#219);
#143=COMPOSITE_CURVE_SEGMENT(.CONTINUOUS.,.T.,#220);
#144=COMPOSITE_CURVE_SEGMENT(.CONTINUOUS.,.T.,#221);
#145=COMPOSITE_CURVE_SEGMENT(.CONTINUOUS.,.T.,#222);
#146=COMPOSITE_CURVE_SEGMENT(.CONTINUOUS.,.T.,#223);
#147=SURFACE_STYLE_USAGE(.BOTH.,#224);
#148=FACE_OUTER_BOUND('',#225,.T.);
#149=CONICAL_SURFACE('',#226,2.9,1.13446401379632);
#150=SURFACE_STYLE_USAGE(.BOTH.,#227);
#151=FACE_OUTER_BOUND('',#228,.T.);
#152=CYLINDRICAL_SURFACE('',#229,5.79999999999999);
#153=SURFACE_STYLE_USAGE(.BOTH.,#230);
#154=FACE_OUTER_BOUND('',#231,.T.);
#155=PLANE('',#232);
#156=SURFACE_STYLE_USAGE(.BOTH.,#233);
#157=FACE_OUTER_BOUND('',#234,.T.);
#158=CYLINDRICAL_SURFACE('',#235,5.79999999999999);
#159=SURFACE_STYLE_USAGE(.BOTH.,#236);
#160=FACE_OUTER_BOUND('',#237,.T.);
#161=CONICAL_SURFACE('',#238,2.9,1.13446401379632);
#162=PRODUCT_CONTEXT('',#30,'mechanical');
#163=PRODUCT_DEFINITION_FORMATION_WITH_SPECIFIED_SOURCE(' ','NONE',#81,.NOT_KNOWN.);
#164=CLOSED_SHELL('',(#50,#52,#54,#56,#58,#60,#62,#64,#66,#68));
#165=CARTESIAN_POINT('',(0.0,0.0,0.0));
#166=DIRECTION('',(0.0,0.0,1.0));
#167=DIRECTION('',(1.0,0.0,0.0));
#168=CLOSED_SHELL('',(#72,#74,#76,#78,#80));
#169=CARTESIAN_POINT('',(0.0,0.0,0.0));
#170=DIRECTION('',(0.0,0.0,1.0));
#171=DIRECTION('',(1.0,0.0,0.0));
#172=CARTESIAN_POINT('',(0.0,0.0,0.0));
#173=DIRECTION('',(0.0,0.0,1.0));
#174=DIRECTION('',(1.0,0.0,0.0));
#175= (NAMED_UNIT(#94)LENGTH_UNIT()SI_UNIT(.MILLI.,.METRE.));
#176=DRAUGHTING_PRE_DEFINED_CURVE_FONT('continuous');
#177=COLOUR_RGB('',0.0,1.0,0.0);
#178=TRIMMED_CURVE('',#240,(PARAMETER_VALUE(0.0)),(PARAMETER_VALUE(6.0)),.T.,.UNSPECIFIED.);
#179=DRAUGHTING_PRE_DEFINED_CURVE_FONT('continuous');
#180=COLOUR_RGB('',0.498039215803146,0.498039215803146,0.498039215803146);
#181=TRIMMED_CURVE('',#241,(PARAMETER_VALUE(0.0)),(PARAMETER_VALUE(5.04000000000002)),.T.,.UNSPECIFIED.);
#182=TRIMMED_CURVE('',#242,(PARAMETER_VALUE(0.0)),(PARAMETER_VALUE(62.0)),.T.,.UNSPECIFIED.);
#183=TRIMMED_CURVE('',#243,(PARAMETER_VALUE(0.0)),(PARAMETER_VALUE(5.79999999999997)),.T.,.UNSPECIFIED.);
#184=TRIMMED_CURVE('',#244,(PARAMETER_VALUE(0.0)),(PARAMETER_VALUE(16.7999999999999)),.T.,.UNSPECIFIED.);
#185=TRIMMED_CURVE('',#245,(PARAMETER_VALUE(0.0)),(PARAMETER_VALUE(0.282842712474683)),.T.,.UNSPECIFIED.);
#186=TRIMMED_CURVE('',#246,(PARAMETER_VALUE(0.0)),(PARAMETER_VALUE(44.04)),.T.,.UNSPECIFIED.);
#187=TRIMMED_CURVE('',#247,(PARAMETER_VALUE(0.0)),(PARAMETER_VALUE(1.35764501987814)),.T.,.UNSPECIFIED.);
#188=SURFACE_SIDE_STYLE('',(#248));
#189=EDGE_LOOP('',(#249,#250,#251,#252));
#190=AXIS2_PLACEMENT_3D('',#253,#254,#255);
#191=SURFACE_SIDE_STYLE('',(#256));
#192=EDGE_LOOP('',(#257,#258,#259,#260));
#193=AXIS2_PLACEMENT_3D('',#261,#262,#263);
#194=SURFACE_SIDE_STYLE('',(#264));
#195=EDGE_LOOP('',(#265,#266,#267,#268));
#196=AXIS2_PLACEMENT_3D('',#269,#270,#271);
#197=SURFACE_SIDE_STYLE('',(#272));
#198=EDGE_LOOP('',(#273,#274,#275,#276));
#199=AXIS2_PLACEMENT_3D('',#277,#278,#279);
#200=SURFACE_SIDE_STYLE('',(#280));
#201=EDGE_LOOP('',(#281,#282,#283,#284));
#202=AXIS2_PLACEMENT_3D('',#285,#286,#287);
#203=SURFACE_SIDE_STYLE('',(#288));
#204=EDGE_LOOP('',(#289,#290,#291,#292));
#205=AXIS2_PLACEMENT_3D('',#293,#294,#295);
#206=SURFACE_SIDE_STYLE('',(#296));
#207=EDGE_LOOP('',(#297,#298,#299,#300));
#208=AXIS2_PLACEMENT_3D('',#301,#302,#303);
#209=SURFACE_SIDE_STYLE('',(#304));
#210=EDGE_LOOP('',(#305,#306));
#211=AXIS2_PLACEMENT_3D('',#307,#308,#309);
#212=SURFACE_SIDE_STYLE('',(#310));
#213=EDGE_LOOP('',(#311,#312));
#214=AXIS2_PLACEMENT_3D('',#313,#314,#315);
#215=SURFACE_SIDE_STYLE('',(#316));
#216=EDGE_LOOP('',(#317,#318,#319,#320));
#217=AXIS2_PLACEMENT_3D('',#321,#322,#323);
#218=DRAUGHTING_PRE_DEFINED_CURVE_FONT('continuous');
#219=COLOUR_RGB('',0.0,0.0,1.0);
#220=TRIMMED_CURVE('',#324,(PARAMETER_VALUE(0.0)),(PARAMETER_VALUE(6.39959192998246)),.T.,.UNSPECIFIED.);
#221=TRIMMED_CURVE('',#325,(PARAMETER_VALUE(0.0)),(PARAMETER_VALUE(97.295415582701)),.T.,.UNSPECIFIED.);
#222=TRIMMED_CURVE('',#326,(PARAMETER_VALUE(0.0)),(PARAMETER_VALUE(5.79999999999997)),.T.,.UNSPECIFIED.);
#223=TRIMMED_CURVE('',#327,(PARAMETER_VALUE(0.0)),(PARAMETER_VALUE(100.0)),.T.,.UNSPECIFIED.);
#224=SURFACE_SIDE_STYLE('',(#328));
#225=EDGE_LOOP('',(#329,#330,#331));
#226=AXIS2_PLACEMENT_3D('',#332,#333,#334);
#227=SURFACE_SIDE_STYLE('',(#335));
#228=EDGE_LOOP('',(#336,#337,#338,#339));
#229=AXIS2_PLACEMENT_3D('',#340,#341,#342);
#230=SURFACE_SIDE_STYLE('',(#343));
#231=EDGE_LOOP('',(#344,#345));
#232=AXIS2_PLACEMENT_3D('',#346,#347,#348);
#233=SURFACE_SIDE_STYLE('',(#349));
#234=EDGE_LOOP('',(#350,#351,#352,#353));
#235=AXIS2_PLACEMENT_3D('',#354,#355,#356);
#236=SURFACE_SIDE_STYLE('',(#357));
#237=EDGE_LOOP('',(#358,#359,#360));
#238=AXIS2_PLACEMENT_3D('',#361,#362,#363);
#240=LINE('',#364,#365);
#241=LINE('',#366,#367);
#242=LINE('',#368,#369);
#243=LINE('',#370,#371);
#244=LINE('',#372,#373);
#245=LINE('',#374,#375);
#246=LINE('',#376,#377);
#247=LINE('',#378,#379);
#248=SURFACE_STYLE_FILL_AREA(#380);
#249=ORIENTED_EDGE('',*,*,#381,.F.);
#250=ORIENTED_EDGE('',*,*,#382,.T.);
#251=ORIENTED_EDGE('',*,*,#383,.F.);
#252=ORIENTED_EDGE('',*,*,#384,.F.);
#253=CARTESIAN_POINT('',(-2.72606377490201E-15,0.0,44.52));
#254=DIRECTION('',(6.12323399573677E-17,-3.70147186508024E-17,-1.0));
#255=DIRECTION('',(2.26649783585225E-33,1.0,-3.70147186508024E-17));
#256=SURFACE_STYLE_FILL_AREA(#385);
#257=ORIENTED_EDGE('',*,*,#386,.F.);
#258=ORIENTED_EDGE('',*,*,#387,.T.);
#259=ORIENTED_EDGE('',*,*,#388,.F.);
#260=ORIENTED_EDGE('',*,*,#389,.F.);
#261=CARTESIAN_POINT('',(5.26598123633363E-16,0.0,-8.60000000000002));
#262=DIRECTION('',(6.12323399573677E-17,-3.70147186508024E-17,-1.0));
#263=DIRECTION('',(2.26649783585225E-33,1.0,-3.70147186508024E-17));
#264=SURFACE_STYLE_FILL_AREA(#390);
#265=ORIENTED_EDGE('',*,*,#391,.F.);
#266=ORIENTED_EDGE('',*,*,#392,.T.);
#267=ORIENTED_EDGE('',*,*,#393,.F.);
#268=ORIENTED_EDGE('',*,*,#387,.F.);
#269=CARTESIAN_POINT('',(6.12323399573826E-18,0.0,-0.100000000000023));
#270=DIRECTION('',(-6.12323399573677E-17,3.70147186508024E-17,1.0));
#271=DIRECTION('',(2.26649783585225E-33,1.0,-3.70147186508024E-17));
#272=SURFACE_STYLE_FILL_AREA(#394);
#273=ORIENTED_EDGE('',*,*,#395,.F.);
#274=ORIENTED_EDGE('',*,*,#384,.T.);
#275=ORIENTED_EDGE('',*,*,#396,.F.);
#276=ORIENTED_EDGE('',*,*,#392,.F.);
#277=CARTESIAN_POINT('',(-1.34833612586124E-15,0.0,22.02));
#278=DIRECTION('',(6.12323399573676E-17,-3.70147186508024E-17,-1.0));
#279=DIRECTION('',(2.26649783585225E-33,1.0,-3.70147186508024E-17));
#280=SURFACE_STYLE_FILL_AREA(#397);
#281=ORIENTED_EDGE('',*,*,#395,.T.);
#282=ORIENTED_EDGE('',*,*,#398,.F.);
#283=ORIENTED_EDGE('',*,*,#396,.T.);
#284=ORIENTED_EDGE('',*,*,#399,.T.);
#285=CARTESIAN_POINT('',(-1.34833612586124E-15,0.0,22.02));
#286=DIRECTION('',(6.12323399573676E-17,-3.70147186508024E-17,-1.0));
#287=DIRECTION('',(2.26649783585225E-33,1.0,-3.70147186508024E-17));
#288=SURFACE_STYLE_FILL_AREA(#400);
#289=ORIENTED_EDGE('',*,*,#391,.T.);
#290=ORIENTED_EDGE('',*,*,#401,.F.);
#291=ORIENTED_EDGE('',*,*,#393,.T.);
#292=ORIENTED_EDGE('',*,*,#398,.T.);
#293=CARTESIAN_POINT('',(6.12323399573826E-18,0.0,-0.100000000000023));
#294=DIRECTION('',(-6.12323399573677E-17,3.70147186508024E-17,1.0));
#295=DIRECTION('',(2.26649783585225E-33,1.0,-3.70147186508024E-17));
#296=SURFACE_STYLE_FILL_AREA(#402);
#297=ORIENTED_EDGE('',*,*,#386,.T.);
#298=ORIENTED_EDGE('',*,*,#403,.F.);
#299=ORIENTED_EDGE('',*,*,#388,.T.);
#300=ORIENTED_EDGE('',*,*,#401,.T.);
#301=CARTESIAN_POINT('',(5.26598123633363E-16,0.0,-8.60000000000002));
#302=DIRECTION('',(6.12323399573677E-17,-3.70147186508024E-17,-1.0));
#303=DIRECTION('',(2.26649783585225E-33,1.0,-3.70147186508024E-17));
#304=SURFACE_STYLE_FILL_AREA(#404);
#305=ORIENTED_EDGE('',*,*,#389,.T.);
#306=ORIENTED_EDGE('',*,*,#403,.T.);
#307=CARTESIAN_POINT('',(1.04094977927525E-15,2.89999999999998,-17.0));
#308=DIRECTION('',(6.12323399573677E-17,-1.22507368234501E-15,-1.0));
#309=DIRECTION('',(7.50141281901737E-32,1.0,-1.22507368234501E-15));
#310=SURFACE_STYLE_FILL_AREA(#405);
#311=ORIENTED_EDGE('',*,*,#382,.F.);
#312=ORIENTED_EDGE('',*,*,#406,.F.);
#313=CARTESIAN_POINT('',(-2.75545529808154E-15,2.52000000000001,45.0));
#314=DIRECTION('',(-6.12323399573677E-17,0.0,1.0));
#315=DIRECTION('',(0.0,-1.0,0.0));
#316=SURFACE_STYLE_FILL_AREA(#407);
#317=ORIENTED_EDGE('',*,*,#381,.T.);
#318=ORIENTED_EDGE('',*,*,#399,.F.);
#319=ORIENTED_EDGE('',*,*,#383,.T.);
#320=ORIENTED_EDGE('',*,*,#406,.T.);
#321=CARTESIAN_POINT('',(-2.72606377490201E-15,0.0,44.52));
#322=DIRECTION('',(6.12323399573677E-17,-3.70147186508024E-17,-1.0));
#323=DIRECTION('',(2.26649783585225E-33,1.0,-3.70147186508024E-17));
#324=LINE('',#408,#409);
#325=LINE('',#410,#411);
#326=LINE('',#412,#413);
#327=LINE('',#414,#415);
#328=SURFACE_STYLE_FILL_AREA(#416);
#329=ORIENTED_EDGE('',*,*,#417,.F.);
#330=ORIENTED_EDGE('',*,*,#418,.F.);
#331=ORIENTED_EDGE('',*,*,#419,.T.);
#332=CARTESIAN_POINT('',(7.08137975877029E-15,0.0,-115.647707791351));
#333=DIRECTION('',(-6.12323399573677E-17,-0.0,1.0));
#334=DIRECTION('',(0.0,1.0,0.0));
#335=SURFACE_STYLE_FILL_AREA(#420);
#336=ORIENTED_EDGE('',*,*,#421,.F.);
#337=ORIENTED_EDGE('',*,*,#422,.T.);
#338=ORIENTED_EDGE('',*,*,#423,.F.);
#339=ORIENTED_EDGE('',*,*,#419,.F.);
#340=CARTESIAN_POINT('',(4.01976276090191E-15,0.0,-65.6477077913505));
#341=DIRECTION('',(6.12323399573677E-17,0.0,-1.0));
#342=DIRECTION('',(0.0,1.0,0.0));
#343=SURFACE_STYLE_FILL_AREA(#424);
#344=ORIENTED_EDGE('',*,*,#422,.F.);
#345=ORIENTED_EDGE('',*,*,#425,.F.);
#346=CARTESIAN_POINT('',(1.04094977927525E-15,2.89999999999998,-17.0));
#347=DIRECTION('',(-6.12323399573677E-17,1.22507368234501E-15,1.0));
#348=DIRECTION('',(-7.50141281901737E-32,-1.0,1.22507368234501E-15));
#349=SURFACE_STYLE_FILL_AREA(#426);
#350=ORIENTED_EDGE('',*,*,#421,.T.);
#351=ORIENTED_EDGE('',*,*,#427,.F.);
#352=ORIENTED_EDGE('',*,*,#423,.T.);
#353=ORIENTED_EDGE('',*,*,#425,.T.);
#354=CARTESIAN_POINT('',(4.01976276090191E-15,0.0,-65.6477077913505));
#355=DIRECTION('',(6.12323399573677E-17,0.0,-1.0));
#356=DIRECTION('',(0.0,1.0,0.0));
#357=SURFACE_STYLE_FILL_AREA(#428);
#358=ORIENTED_EDGE('',*,*,#417,.T.);
#359=ORIENTED_EDGE('',*,*,#427,.T.);
#360=ORIENTED_EDGE('',*,*,#418,.T.);
#361=CARTESIAN_POINT('',(7.08137975877029E-15,0.0,-115.647707791351));
#362=DIRECTION('',(-6.12323399573677E-17,-0.0,1.0));
#363=DIRECTION('',(0.0,1.0,0.0));
#364=CARTESIAN_POINT('',(0.0,6.0,0.0));
#365=VECTOR('',#429,1.0);
#366=CARTESIAN_POINT('',(-2.75545529808154E-15,5.04000000000002,45.0));
#367=VECTOR('',#430,1.0);
#368=CARTESIAN_POINT('',(-2.75545529808154E-15,0.0,45.0));
#369=VECTOR('',#431,1.0);
#370=CARTESIAN_POINT('',(1.04094977927525E-15,0.0,-17.0));
#371=VECTOR('',#432,1.0);
#372=CARTESIAN_POINT('',(1.04094977927525E-15,5.79999999999997,-17.0));
#373=VECTOR('',#433,1.0);
#374=CARTESIAN_POINT('',(1.22464679914763E-17,5.79999999999995,-0.200000000000045));
#375=VECTOR('',#434,1.0);
#376=CARTESIAN_POINT('',(0.0,6.0,0.0));
#377=VECTOR('',#435,1.0);
#378=CARTESIAN_POINT('',(-2.69667225172247E-15,6.0,44.04));
#379=VECTOR('',#436,1.0);
#380=FILL_AREA_STYLE('',(#437));
#381=EDGE_CURVE('',#438,#439,#440,.T.);
#382=EDGE_CURVE('',#438,#441,#442,.T.);
#383=EDGE_CURVE('',#443,#441,#444,.T.);
#384=EDGE_CURVE('',#439,#443,#445,.T.);
#385=FILL_AREA_STYLE('',(#446));
#386=EDGE_CURVE('',#447,#448,#449,.T.);
#387=EDGE_CURVE('',#447,#450,#451,.T.);
#388=EDGE_CURVE('',#452,#450,#453,.T.);
#389=EDGE_CURVE('',#448,#452,#454,.T.);
#390=FILL_AREA_STYLE('',(#455));
#391=EDGE_CURVE('',#456,#447,#457,.T.);
#392=EDGE_CURVE('',#456,#458,#459,.T.);
#393=EDGE_CURVE('',#450,#458,#460,.T.);
#394=FILL_AREA_STYLE('',(#461));
#395=EDGE_CURVE('',#439,#456,#462,.T.);
#396=EDGE_CURVE('',#458,#443,#463,.T.);
#397=FILL_AREA_STYLE('',(#464));
#398=EDGE_CURVE('',#458,#456,#465,.T.);
#399=EDGE_CURVE('',#443,#439,#466,.T.);
#400=FILL_AREA_STYLE('',(#467));
#401=EDGE_CURVE('',#450,#447,#468,.T.);
#402=FILL_AREA_STYLE('',(#469));
#403=EDGE_CURVE('',#452,#448,#470,.T.);
#404=FILL_AREA_STYLE('',(#471));
#405=FILL_AREA_STYLE('',(#472));
#406=EDGE_CURVE('',#441,#438,#473,.T.);
#407=FILL_AREA_STYLE('',(#474));
#408=CARTESIAN_POINT('',(7.16418377501202E-15,0.0,-117.0));
#409=VECTOR('',#475,1.0);
#410=CARTESIAN_POINT('',(6.99857574252857E-15,5.80000000000001,-114.295415582701));
#411=VECTOR('',#476,1.0);
#412=CARTESIAN_POINT('',(1.04094977927525E-15,5.79999999999997,-17.0));
#413=VECTOR('',#477,1.0);
#414=CARTESIAN_POINT('',(1.04094977927525E-15,0.0,-17.0));
#415=VECTOR('',#478,1.0);
#416=FILL_AREA_STYLE('',(#479));
#417=EDGE_CURVE('',#480,#481,#482,.T.);
#418=EDGE_CURVE('',#483,#480,#484,.T.);
#419=EDGE_CURVE('',#483,#481,#485,.T.);
#420=FILL_AREA_STYLE('',(#486));
#421=EDGE_CURVE('',#487,#483,#488,.T.);
#422=EDGE_CURVE('',#487,#489,#490,.T.);
#423=EDGE_CURVE('',#481,#489,#491,.T.);
#424=FILL_AREA_STYLE('',(#492));
#425=EDGE_CURVE('',#489,#487,#493,.T.);
#426=FILL_AREA_STYLE('',(#494));
#427=EDGE_CURVE('',#481,#483,#495,.T.);
#428=FILL_AREA_STYLE('',(#496));
#429=DIRECTION('',(0.0,-1.0,0.0));
#430=DIRECTION('',(0.0,-1.0,0.0));
#431=DIRECTION('',(6.12323399573677E-17,0.0,-1.0));
#432=DIRECTION('',(6.80052504500876E-32,1.0,-1.22507368234501E-15));
#433=DIRECTION('',(-6.12323399573677E-17,-8.45884209238217E-16,1.0));
#434=DIRECTION('',(-4.32978028117747E-17,0.707106781186548,0.707106781186548));
#435=DIRECTION('',(-6.12323399573677E-17,0.0,1.0));
#436=DIRECTION('',(-4.32978028117746E-17,-0.707106781186548,0.707106781186548));
#437=FILL_AREA_STYLE_COLOUR('',#497);
#438=VERTEX_POINT('',#498);
#439=VERTEX_POINT('',#499);
#440=LINE('',#500,#501);
#441=VERTEX_POINT('',#502);
#442=CIRCLE('',#503,5.04000000000002);
#443=VERTEX_POINT('',#504);
#444=LINE('',#505,#506);
#445=CIRCLE('',#507,6.0);
#446=FILL_AREA_STYLE_COLOUR('',#508);
#447=VERTEX_POINT('',#509);
#448=VERTEX_POINT('',#510);
#449=LINE('',#511,#512);
#450=VERTEX_POINT('',#513);
#451=CIRCLE('',#514,5.79999999999995);
#452=VERTEX_POINT('',#515);
#453=LINE('',#516,#517);
#454=CIRCLE('',#518,5.79999999999997);
#455=FILL_AREA_STYLE_COLOUR('',#519);
#456=VERTEX_POINT('',#520);
#457=LINE('',#521,#522);
#458=VERTEX_POINT('',#523);
#459=CIRCLE('',#524,6.0);
#460=LINE('',#525,#526);
#461=FILL_AREA_STYLE_COLOUR('',#527);
#462=LINE('',#528,#529);
#463=LINE('',#530,#531);
#464=FILL_AREA_STYLE_COLOUR('',#532);
#465=CIRCLE('',#533,6.0);
#466=CIRCLE('',#534,6.0);
#467=FILL_AREA_STYLE_COLOUR('',#535);
#468=CIRCLE('',#536,5.79999999999995);
#469=FILL_AREA_STYLE_COLOUR('',#537);
#470=CIRCLE('',#538,5.79999999999997);
#471=FILL_AREA_STYLE_COLOUR('',#539);
#472=FILL_AREA_STYLE_COLOUR('',#540);
#473=CIRCLE('',#541,5.04000000000002);
#474=FILL_AREA_STYLE_COLOUR('',#542);
#475=DIRECTION('',(-2.58779050750981E-17,0.906307787036651,0.422618261740697));
#476=DIRECTION('',(-6.12323399573677E-17,-4.38176494650648E-16,1.0));
#477=DIRECTION('',(0.0,-1.0,0.0));
#478=DIRECTION('',(6.12323399573677E-17,0.0,-1.0));
#479=FILL_AREA_STYLE_COLOUR('',#543);
#480=VERTEX_POINT('',#544);
#481=VERTEX_POINT('',#545);
#482=LINE('',#546,#547);
#483=VERTEX_POINT('',#548);
#484=LINE('',#549,#550);
#485=CIRCLE('',#551,5.80000000000001);
#486=FILL_AREA_STYLE_COLOUR('',#552);
#487=VERTEX_POINT('',#553);
#488=LINE('',#554,#555);
#489=VERTEX_POINT('',#556);
#490=CIRCLE('',#557,5.79999999999997);
#491=LINE('',#558,#559);
#492=FILL_AREA_STYLE_COLOUR('',#560);
#493=CIRCLE('',#561,5.79999999999997);
#494=FILL_AREA_STYLE_COLOUR('',#562);
#495=CIRCLE('',#563,5.80000000000001);
#496=FILL_AREA_STYLE_COLOUR('',#564);
#497=COLOUR_RGB('',0.498039215803146,0.498039215803146,0.498039215803146);
#498=CARTESIAN_POINT('',(-2.75545529808154E-15,5.04000000000002,45.0));
#499=CARTESIAN_POINT('',(-2.69667225172247E-15,6.0,44.04));
#500=CARTESIAN_POINT('',(-3.40206880803135E-15,5.52000000000001,44.52));
#501=VECTOR('',#565,1.0);
#502=CARTESIAN_POINT('',(-2.13823331131128E-15,-5.04000000000002,45.0));
#503=AXIS2_PLACEMENT_3D('',#566,#567,#568);
#504=CARTESIAN_POINT('',(-1.96188417223406E-15,-6.0,44.04));
#505=CARTESIAN_POINT('',(-2.05005874177267E-15,-5.52000000000001,44.52));
#506=VECTOR('',#569,1.0);
#507=AXIS2_PLACEMENT_3D('',#570,#571,#572);
#508=COLOUR_RGB('',0.498039215803146,0.498039215803146,0.498039215803146);
#509=CARTESIAN_POINT('',(1.22464679914761E-17,5.79999999999995,-0.200000000000045));
#510=CARTESIAN_POINT('',(1.04094977927525E-15,5.79999999999997,-17.0));
#511=CARTESIAN_POINT('',(-1.83697019872097E-16,5.79999999999996,-8.60000000000002));
#512=VECTOR('',#573,1.0);
#513=CARTESIAN_POINT('',(7.22541611496936E-16,-5.79999999999995,-0.200000000000045));
#514=AXIS2_PLACEMENT_3D('',#574,#575,#576);
#515=CARTESIAN_POINT('',(1.75124492278071E-15,-5.79999999999997,-17.0));
#516=CARTESIAN_POINT('',(1.23689326713882E-15,-5.79999999999996,-8.60000000000002));
#517=VECTOR('',#577,1.0);
#518=AXIS2_PLACEMENT_3D('',#578,#579,#580);
#519=COLOUR_RGB('',0.498039215803146,0.498039215803146,0.498039215803146);
#520=CARTESIAN_POINT('',(0.0,6.0,0.0));
#521=CARTESIAN_POINT('',(-7.16418377501197E-16,5.89999999999998,-0.100000000000023));
#522=VECTOR('',#581,1.0);
#523=CARTESIAN_POINT('',(7.34788079488411E-16,-6.0,2.22088311904814E-16));
#524=AXIS2_PLACEMENT_3D('',#582,#583,#584);
#525=CARTESIAN_POINT('',(7.28664845492674E-16,-5.89999999999998,-0.100000000000023));
#526=VECTOR('',#585,1.0);
#527=COLOUR_RGB('',0.498039215803146,0.498039215803146,0.498039215803146);
#528=CARTESIAN_POINT('',(-2.08312420534965E-15,6.0,22.02));
#529=VECTOR('',#586,1.0);
#530=CARTESIAN_POINT('',(-6.13548046372825E-16,-6.0,22.02));
#531=VECTOR('',#587,1.0);
#532=COLOUR_RGB('',0.498039215803146,0.498039215803146,0.498039215803146);
#533=AXIS2_PLACEMENT_3D('',#588,#589,#590);
#534=AXIS2_PLACEMENT_3D('',#591,#592,#593);
#535=COLOUR_RGB('',0.498039215803146,0.498039215803146,0.498039215803146);
#536=AXIS2_PLACEMENT_3D('',#594,#595,#596);
#537=COLOUR_RGB('',0.498039215803146,0.498039215803146,0.498039215803146);
#538=AXIS2_PLACEMENT_3D('',#597,#598,#599);
#539=COLOUR_RGB('',0.498039215803146,0.498039215803146,0.498039215803146);
#540=COLOUR_RGB('',0.498039215803146,0.498039215803146,0.498039215803146);
#541=AXIS2_PLACEMENT_3D('',#600,#601,#602);
#542=COLOUR_RGB('',0.498039215803146,0.498039215803146,0.498039215803146);
#543=COLOUR_RGB('',0.800000011920929,0.800000011920929,0.800000011920929);
#544=CARTESIAN_POINT('',(7.16418377501202E-15,0.0,-117.0));
#545=CARTESIAN_POINT('',(7.70887088603403E-15,-5.80000000000001,-114.295415582701));
#546=CARTESIAN_POINT('',(7.43652733052303E-15,-2.9,-115.647707791351));
#547=VECTOR('',#603,1.0);
#548=CARTESIAN_POINT('',(6.99857574252857E-15,5.80000000000001,-114.295415582701));
#549=CARTESIAN_POINT('',(6.72623218701756E-15,2.9,-115.647707791351));
#550=VECTOR('',#604,1.0);
#551=AXIS2_PLACEMENT_3D('',#605,#606,#607);
#552=COLOUR_RGB('',0.800000011920929,0.800000011920929,0.800000011920929);
#553=CARTESIAN_POINT('',(1.04094977927525E-15,5.79999999999997,-17.0));
#554=CARTESIAN_POINT('',(3.30946761739645E-15,5.79999999999999,-65.6477077913505));
#555=VECTOR('',#608,1.0);
#556=CARTESIAN_POINT('',(1.75124492278071E-15,-5.79999999999997,-17.0));
#557=AXIS2_PLACEMENT_3D('',#609,#610,#611);
#558=CARTESIAN_POINT('',(4.73005790440737E-15,-5.79999999999999,-65.6477077913505));
#559=VECTOR('',#612,1.0);
#560=COLOUR_RGB('',0.800000011920929,0.800000011920929,0.800000011920929);
#561=AXIS2_PLACEMENT_3D('',#613,#614,#615);
#562=COLOUR_RGB('',0.800000011920929,0.800000011920929,0.800000011920929);
#563=AXIS2_PLACEMENT_3D('',#616,#617,#618);
#564=COLOUR_RGB('',0.800000011920929,0.800000011920929,0.800000011920929);
#565=DIRECTION('',(-4.32978028117746E-17,0.707106781186548,-0.707106781186547));
#566=CARTESIAN_POINT('',(-2.75545529808154E-15,0.0,45.0));
#567=DIRECTION('',(6.12323399573677E-17,-3.70147186508024E-17,-1.0));
#568=DIRECTION('',(2.26649783585225E-33,1.0,-3.70147186508024E-17));
#569=DIRECTION('',(-1.29893408435324E-16,0.707106781186548,0.707106781186547));
#570=CARTESIAN_POINT('',(-2.69667225172247E-15,0.0,44.04));
#571=DIRECTION('',(6.12323399573676E-17,-3.70147186508024E-17,-1.0));
#572=DIRECTION('',(2.26649783585225E-33,1.0,-3.70147186508024E-17));
#573=DIRECTION('',(6.12323399573677E-17,-3.70147186508024E-17,-1.0));
#574=CARTESIAN_POINT('',(1.22464679914761E-17,0.0,-0.200000000000045));
#575=DIRECTION('',(6.12323399573676E-17,-3.70147186508024E-17,-1.0));
#576=DIRECTION('',(2.26649783585225E-33,1.0,-3.70147186508024E-17));
#577=DIRECTION('',(-6.12323399573677E-17,3.70147186508024E-17,1.0));
#578=CARTESIAN_POINT('',(1.04094977927525E-15,0.0,-17.0));
#579=DIRECTION('',(6.12323399573677E-17,-3.70147186508024E-17,-1.0));
#580=DIRECTION('',(2.26649783585225E-33,1.0,-3.70147186508024E-17));
#581=DIRECTION('',(1.29893408435324E-16,-0.707106781186548,-0.707106781186548));
#582=CARTESIAN_POINT('',(0.0,0.0,0.0));
#583=DIRECTION('',(6.12323399573676E-17,-3.70147186508024E-17,-1.0));
#584=DIRECTION('',(2.26649783585225E-33,1.0,-3.70147186508024E-17));
#585=DIRECTION('',(4.32978028117747E-17,-0.707106781186548,0.707106781186548));
#586=DIRECTION('',(6.12323399573676E-17,-3.70147186508024E-17,-1.0));
#587=DIRECTION('',(-6.12323399573676E-17,3.70147186508024E-17,1.0));
#588=CARTESIAN_POINT('',(0.0,0.0,0.0));
#589=DIRECTION('',(6.12323399573676E-17,-3.70147186508024E-17,-1.0));
#590=DIRECTION('',(2.26649783585225E-33,1.0,-3.70147186508024E-17));
#591=CARTESIAN_POINT('',(-2.69667225172247E-15,0.0,44.04));
#592=DIRECTION('',(6.12323399573676E-17,-3.70147186508024E-17,-1.0));
#593=DIRECTION('',(2.26649783585225E-33,1.0,-3.70147186508024E-17));
#594=CARTESIAN_POINT('',(1.22464679914761E-17,0.0,-0.200000000000045));
#595=DIRECTION('',(6.12323399573676E-17,-3.70147186508024E-17,-1.0));
#596=DIRECTION('',(2.26649783585225E-33,1.0,-3.70147186508024E-17));
#597=CARTESIAN_POINT('',(1.04094977927525E-15,0.0,-17.0));
#598=DIRECTION('',(6.12323399573677E-17,-3.70147186508024E-17,-1.0));
#599=DIRECTION('',(2.26649783585225E-33,1.0,-3.70147186508024E-17));
#600=CARTESIAN_POINT('',(-2.75545529808154E-15,0.0,45.0));
#601=DIRECTION('',(6.12323399573677E-17,-3.70147186508024E-17,-1.0));
#602=DIRECTION('',(2.26649783585225E-33,1.0,-3.70147186508024E-17));
#603=DIRECTION('',(8.51127879685772E-17,-0.906307787036651,0.422618261740697));
#604=DIRECTION('',(1.36868598118774E-16,-0.906307787036651,-0.422618261740697));
#605=CARTESIAN_POINT('',(6.99857574252857E-15,0.0,-114.295415582701));
#606=DIRECTION('',(6.12323399573677E-17,0.0,-1.0));
#607=DIRECTION('',(0.0,1.0,0.0));
#608=DIRECTION('',(6.12323399573677E-17,0.0,-1.0));
#609=CARTESIAN_POINT('',(1.04094977927525E-15,0.0,-17.0));
#610=DIRECTION('',(6.12323399573677E-17,0.0,-1.0));
#611=DIRECTION('',(0.0,1.0,0.0));
#612=DIRECTION('',(-6.12323399573677E-17,-0.0,1.0));
#613=CARTESIAN_POINT('',(1.04094977927525E-15,0.0,-17.0));
#614=DIRECTION('',(6.12323399573677E-17,0.0,-1.0));
#615=DIRECTION('',(0.0,1.0,0.0));
#616=CARTESIAN_POINT('',(6.99857574252857E-15,0.0,-114.295415582701));
#617=DIRECTION('',(6.12323399573677E-17,0.0,-1.0));
#618=DIRECTION('',(0.0,1.0,0.0));
#619=DIRECTION('',(0.0,0.0,1.0));
#620=DIRECTION('',(1.0,0.0,0.0));
#621=CARTESIAN_POINT('',(0.0,0.0,45.000000));
#622=AXIS2_PLACEMENT_3D('PCS', #621,#619,#620);
#623=CARTESIAN_POINT('',(0.0,0.0,0.000000));
#624=AXIS2_PLACEMENT_3D('MCS', #623,#619,#620);
#625=CARTESIAN_POINT('',(0.0,0.0,-117.000000));
#626=AXIS2_PLACEMENT_3D('CIP', #625,#619,#620);
ENDSEC;
END-ISO-10303-21;
