ISO-10303-21;
HEADER;
FILE_DESCRIPTION(('STEP AP214'),'1');
FILE_NAME('607909546-000-00-E43.stp','2023-02-16T11:41:08',(' '),(' '),'Spatial InterOp 3D',' ',' ');
FILE_SCHEMA(('AUTOMOTIVE_DESIGN { 1 0 10303 214 1 1 1 1 }'));
ENDSEC;
DATA;
#1=MECHANICAL_DESIGN_GEOMETRIC_PRESENTATION_REPRESENTATION(' ',(#12,#13,#14,#15,#16,#17,#18,#19,#20,#21,#22,#23,#24,#25,#26,#27),#8);
#2=PRODUCT_DEFINITION_CONTEXT('',#28,'design');
#3=APPLICATION_PROTOCOL_DEFINITION('INTERNATIONAL STANDARD','automotive_design',1994,#28);
#4=PRODUCT_CATEGORY_RELATIONSHIP('NONE','NONE',#29,#30);
#5=SHAPE_DEFINITION_REPRESENTATION(#31,#32);
#6=SHAPE_DEFINITION_REPRESENTATION(#31,#33);
#7=SHAPE_DEFINITION_REPRESENTATION(#31,#34);
#8= (GEOMETRIC_REPRESENTATION_CONTEXT(3)GLOBAL_UNCERTAINTY_ASSIGNED_CONTEXT((#37))GLOBAL_UNIT_ASSIGNED_CONTEXT((#39,#40,#41))REPRESENTATION_CONTEXT('NONE','WORKSPACE'));
#12=STYLED_ITEM('',(#43),#44);
#13=STYLED_ITEM('',(#45),#46);
#14=STYLED_ITEM('',(#47),#48);
#15=STYLED_ITEM('',(#49),#50);
#16=STYLED_ITEM('',(#51),#52);
#17=STYLED_ITEM('',(#53),#54);
#18=STYLED_ITEM('',(#55),#56);
#19=STYLED_ITEM('',(#57),#58);
#20=STYLED_ITEM('',(#59),#60);
#21=STYLED_ITEM('',(#61),#62);
#22=STYLED_ITEM('',(#63),#64);
#23=STYLED_ITEM('',(#65),#66);
#24=STYLED_ITEM('',(#67),#68);
#25=STYLED_ITEM('',(#69),#70);
#26=STYLED_ITEM('',(#71),#72);
#27=STYLED_ITEM('',(#73),#74);
#28=APPLICATION_CONTEXT(' ');
#29=PRODUCT_CATEGORY('part','NONE');
#30=PRODUCT_RELATED_PRODUCT_CATEGORY('detail',' ',(#75));
#31=PRODUCT_DEFINITION_SHAPE('NONE','NONE',#76);
#32=ADVANCED_BREP_SHAPE_REPRESENTATION('1',(#77,#78),#8);
#33=ADVANCED_BREP_SHAPE_REPRESENTATION('2',(#79,#80),#8);
#34=GEOMETRICALLY_BOUNDED_SURFACE_SHAPE_REPRESENTATION('3',(#81,#82),#8);
#37=UNCERTAINTY_MEASURE_WITH_UNIT(LENGTH_MEASURE(1.0E-06),#39,'','');
#39= (CONVERSION_BASED_UNIT('MILLIMETRE',#85)LENGTH_UNIT()NAMED_UNIT(#88));
#40= (NAMED_UNIT(#90)PLANE_ANGLE_UNIT()SI_UNIT($,.RADIAN.));
#41= (NAMED_UNIT(#90)SOLID_ANGLE_UNIT()SI_UNIT($,.STERADIAN.));
#43=PRESENTATION_STYLE_ASSIGNMENT((#96));
#44=COMPOSITE_CURVE('',(#97),.U.);
#45=PRESENTATION_STYLE_ASSIGNMENT((#98));
#46=COMPOSITE_CURVE('',(#99),.U.);
#47=PRESENTATION_STYLE_ASSIGNMENT((#100));
#48=ADVANCED_FACE('',(#101),#102,.T.);
#49=PRESENTATION_STYLE_ASSIGNMENT((#103));
#50=ADVANCED_FACE('',(#104),#105,.T.);
#51=PRESENTATION_STYLE_ASSIGNMENT((#106));
#52=ADVANCED_FACE('',(#107),#108,.T.);
#53=PRESENTATION_STYLE_ASSIGNMENT((#109));
#54=ADVANCED_FACE('',(#110),#111,.T.);
#55=PRESENTATION_STYLE_ASSIGNMENT((#112));
#56=ADVANCED_FACE('',(#113),#114,.T.);
#57=PRESENTATION_STYLE_ASSIGNMENT((#115));
#58=ADVANCED_FACE('',(#116),#117,.T.);
#59=PRESENTATION_STYLE_ASSIGNMENT((#118));
#60=ADVANCED_FACE('',(#119),#120,.T.);
#61=PRESENTATION_STYLE_ASSIGNMENT((#121));
#62=ADVANCED_FACE('',(#122),#123,.T.);
#63=PRESENTATION_STYLE_ASSIGNMENT((#124));
#64=ADVANCED_FACE('',(#125),#126,.T.);
#65=PRESENTATION_STYLE_ASSIGNMENT((#127));
#66=ADVANCED_FACE('',(#128),#129,.T.);
#67=PRESENTATION_STYLE_ASSIGNMENT((#130));
#68=ADVANCED_FACE('',(#131),#132,.T.);
#69=PRESENTATION_STYLE_ASSIGNMENT((#133));
#70=ADVANCED_FACE('',(#134,#135),#136,.T.);
#71=PRESENTATION_STYLE_ASSIGNMENT((#137));
#72=ADVANCED_FACE('',(#138),#139,.T.);
#73=PRESENTATION_STYLE_ASSIGNMENT((#140));
#74=ADVANCED_FACE('',(#141),#142,.T.);
#75=PRODUCT('1','','PART--DESC',(#143));
#76=PRODUCT_DEFINITION('','NONE',#144,#2);
#77=MANIFOLD_SOLID_BREP('1',#145);
#78=AXIS2_PLACEMENT_3D('',#146,#147,#148);
#79=MANIFOLD_SOLID_BREP('2',#149);
#80=AXIS2_PLACEMENT_3D('',#150,#151,#152);
#81=GEOMETRIC_SET('3',(#44,#46));
#82=AXIS2_PLACEMENT_3D('',#153,#154,#155);
#85=LENGTH_MEASURE_WITH_UNIT(LENGTH_MEASURE(1.0),#156);
#88=DIMENSIONAL_EXPONENTS(1.0,0.0,0.0,0.0,0.0,0.0,0.0);
#90=DIMENSIONAL_EXPONENTS(0.0,0.0,0.0,0.0,0.0,0.0,0.0);
#96=CURVE_STYLE('',#157,POSITIVE_LENGTH_MEASURE(1.0E-06),#158);
#97=COMPOSITE_CURVE_SEGMENT(.CONTINUOUS.,.T.,#159);
#98=CURVE_STYLE('',#160,POSITIVE_LENGTH_MEASURE(1.0E-06),#161);
#99=COMPOSITE_CURVE_SEGMENT(.CONTINUOUS.,.T.,#162);
#100=SURFACE_STYLE_USAGE(.BOTH.,#163);
#101=FACE_OUTER_BOUND('',#164,.T.);
#102=SPHERICAL_SURFACE('',#165,8.0);
#103=SURFACE_STYLE_USAGE(.BOTH.,#166);
#104=FACE_OUTER_BOUND('',#167,.T.);
#105=CYLINDRICAL_SURFACE('',#168,8.0);
#106=SURFACE_STYLE_USAGE(.BOTH.,#169);
#107=FACE_OUTER_BOUND('',#170,.T.);
#108=PLANE('',#171);
#109=SURFACE_STYLE_USAGE(.BOTH.,#172);
#110=FACE_OUTER_BOUND('',#173,.T.);
#111=CYLINDRICAL_SURFACE('',#174,8.0);
#112=SURFACE_STYLE_USAGE(.BOTH.,#175);
#113=FACE_OUTER_BOUND('',#176,.T.);
#114=SPHERICAL_SURFACE('',#177,8.0);
#115=SURFACE_STYLE_USAGE(.BOTH.,#178);
#116=FACE_OUTER_BOUND('',#179,.T.);
#117=CYLINDRICAL_SURFACE('',#180,7.9);
#118=SURFACE_STYLE_USAGE(.BOTH.,#181);
#119=FACE_OUTER_BOUND('',#182,.T.);
#120=CYLINDRICAL_SURFACE('',#183,8.0);
#121=SURFACE_STYLE_USAGE(.BOTH.,#184);
#122=FACE_OUTER_BOUND('',#185,.T.);
#123=CONICAL_SURFACE('',#186,6.45,0.785398163397448);
#124=SURFACE_STYLE_USAGE(.BOTH.,#187);
#125=FACE_OUTER_BOUND('',#188,.T.);
#126=PLANE('',#189);
#127=SURFACE_STYLE_USAGE(.BOTH.,#190);
#128=FACE_OUTER_BOUND('',#191,.T.);
#129=CONICAL_SURFACE('',#192,6.45,0.785398163397448);
#130=SURFACE_STYLE_USAGE(.BOTH.,#193);
#131=FACE_OUTER_BOUND('',#194,.T.);
#132=CYLINDRICAL_SURFACE('',#195,8.0);
#133=SURFACE_STYLE_USAGE(.BOTH.,#196);
#134=FACE_BOUND('',#197,.T.);
#135=FACE_OUTER_BOUND('',#198,.T.);
#136=PLANE('',#199);
#137=SURFACE_STYLE_USAGE(.BOTH.,#200);
#138=FACE_OUTER_BOUND('',#201,.T.);
#139=CYLINDRICAL_SURFACE('',#202,7.9);
#140=SURFACE_STYLE_USAGE(.BOTH.,#203);
#141=FACE_OUTER_BOUND('',#204,.T.);
#142=PLANE('',#205);
#143=PRODUCT_CONTEXT('',#28,'mechanical');
#144=PRODUCT_DEFINITION_FORMATION_WITH_SPECIFIED_SOURCE(' ','NONE',#75,.NOT_KNOWN.);
#145=CLOSED_SHELL('',(#48,#50,#52,#54,#56));
#146=CARTESIAN_POINT('',(0.0,0.0,0.0));
#147=DIRECTION('',(0.0,0.0,1.0));
#148=DIRECTION('',(1.0,0.0,0.0));
#149=CLOSED_SHELL('',(#58,#60,#62,#64,#66,#68,#70,#72,#74));
#150=CARTESIAN_POINT('',(0.0,0.0,0.0));
#151=DIRECTION('',(0.0,0.0,1.0));
#152=DIRECTION('',(1.0,0.0,0.0));
#153=CARTESIAN_POINT('',(0.0,0.0,0.0));
#154=DIRECTION('',(0.0,0.0,1.0));
#155=DIRECTION('',(1.0,0.0,0.0));
#156= (NAMED_UNIT(#88)LENGTH_UNIT()SI_UNIT(.MILLI.,.METRE.));
#157=DRAUGHTING_PRE_DEFINED_CURVE_FONT('continuous');
#158=COLOUR_RGB('',0.0,1.0,0.0);
#159=TRIMMED_CURVE('',#207,(PARAMETER_VALUE(0.0)),(PARAMETER_VALUE(8.0)),.T.,.UNSPECIFIED.);
#160=DRAUGHTING_PRE_DEFINED_CURVE_FONT('continuous');
#161=COLOUR_RGB('',0.0,1.0,0.0);
#162=TRIMMED_CURVE('',#208,(PARAMETER_VALUE(0.0)),(PARAMETER_VALUE(8.0)),.T.,.UNSPECIFIED.);
#163=SURFACE_SIDE_STYLE('',(#209));
#164=EDGE_LOOP('',(#210,#211,#212));
#165=AXIS2_PLACEMENT_3D('',#213,#214,#215);
#166=SURFACE_SIDE_STYLE('',(#216));
#167=EDGE_LOOP('',(#217,#218,#219,#220,#221));
#168=AXIS2_PLACEMENT_3D('',#222,#223,#224);
#169=SURFACE_SIDE_STYLE('',(#225));
#170=EDGE_LOOP('',(#226,#227));
#171=AXIS2_PLACEMENT_3D('',#228,#229,#230);
#172=SURFACE_SIDE_STYLE('',(#231));
#173=EDGE_LOOP('',(#232,#233,#234,#235,#236));
#174=AXIS2_PLACEMENT_3D('',#237,#238,#239);
#175=SURFACE_SIDE_STYLE('',(#240));
#176=EDGE_LOOP('',(#241,#242,#243));
#177=AXIS2_PLACEMENT_3D('',#244,#245,#246);
#178=SURFACE_SIDE_STYLE('',(#247));
#179=EDGE_LOOP('',(#248,#249,#250,#251));
#180=AXIS2_PLACEMENT_3D('',#252,#253,#254);
#181=SURFACE_SIDE_STYLE('',(#255));
#182=EDGE_LOOP('',(#256,#257,#258,#259));
#183=AXIS2_PLACEMENT_3D('',#260,#261,#262);
#184=SURFACE_SIDE_STYLE('',(#263));
#185=EDGE_LOOP('',(#264,#265,#266,#267));
#186=AXIS2_PLACEMENT_3D('',#268,#269,#270);
#187=SURFACE_SIDE_STYLE('',(#271));
#188=EDGE_LOOP('',(#272,#273));
#189=AXIS2_PLACEMENT_3D('',#274,#275,#276);
#190=SURFACE_SIDE_STYLE('',(#277));
#191=EDGE_LOOP('',(#278,#279,#280,#281));
#192=AXIS2_PLACEMENT_3D('',#282,#283,#284);
#193=SURFACE_SIDE_STYLE('',(#285));
#194=EDGE_LOOP('',(#286,#287,#288,#289));
#195=AXIS2_PLACEMENT_3D('',#290,#291,#292);
#196=SURFACE_SIDE_STYLE('',(#293));
#197=EDGE_LOOP('',(#294,#295));
#198=EDGE_LOOP('',(#296,#297));
#199=AXIS2_PLACEMENT_3D('',#298,#299,#300);
#200=SURFACE_SIDE_STYLE('',(#301));
#201=EDGE_LOOP('',(#302,#303,#304,#305));
#202=AXIS2_PLACEMENT_3D('',#306,#307,#308);
#203=SURFACE_SIDE_STYLE('',(#309));
#204=EDGE_LOOP('',(#310,#311));
#205=AXIS2_PLACEMENT_3D('',#312,#313,#314);
#207=LINE('',#315,#316);
#208=LINE('',#317,#318);
#209=SURFACE_STYLE_FILL_AREA(#319);
#210=ORIENTED_EDGE('',*,*,#320,.F.);
#211=ORIENTED_EDGE('',*,*,#321,.T.);
#212=ORIENTED_EDGE('',*,*,#322,.T.);
#213=CARTESIAN_POINT('',(5.63337527607782E-15,0.0,-92.0));
#214=DIRECTION('',(1.0,0.0,6.12323399573677E-17));
#215=DIRECTION('',(6.12323399573677E-17,0.0,-1.0));
#216=SURFACE_STYLE_FILL_AREA(#323);
#217=ORIENTED_EDGE('',*,*,#324,.F.);
#218=ORIENTED_EDGE('',*,*,#325,.T.);
#219=ORIENTED_EDGE('',*,*,#326,.F.);
#220=ORIENTED_EDGE('',*,*,#327,.F.);
#221=ORIENTED_EDGE('',*,*,#322,.F.);
#222=CARTESIAN_POINT('',(5.14351655641888E-15,0.0,-84.0));
#223=DIRECTION('',(6.12323399573677E-17,0.0,-1.0));
#224=DIRECTION('',(0.0,1.0,0.0));
#225=SURFACE_STYLE_FILL_AREA(#328);
#226=ORIENTED_EDGE('',*,*,#325,.F.);
#227=ORIENTED_EDGE('',*,*,#329,.F.);
#228=CARTESIAN_POINT('',(4.65365783675994E-15,4.0,-76.0));
#229=DIRECTION('',(-6.12323399573677E-17,0.0,1.0));
#230=DIRECTION('',(0.0,-1.0,0.0));
#231=SURFACE_STYLE_FILL_AREA(#330);
#232=ORIENTED_EDGE('',*,*,#324,.T.);
#233=ORIENTED_EDGE('',*,*,#321,.F.);
#234=ORIENTED_EDGE('',*,*,#331,.F.);
#235=ORIENTED_EDGE('',*,*,#326,.T.);
#236=ORIENTED_EDGE('',*,*,#329,.T.);
#237=CARTESIAN_POINT('',(5.14351655641888E-15,0.0,-84.0));
#238=DIRECTION('',(6.12323399573677E-17,0.0,-1.0));
#239=DIRECTION('',(0.0,1.0,0.0));
#240=SURFACE_STYLE_FILL_AREA(#332);
#241=ORIENTED_EDGE('',*,*,#320,.T.);
#242=ORIENTED_EDGE('',*,*,#327,.T.);
#243=ORIENTED_EDGE('',*,*,#331,.T.);
#244=CARTESIAN_POINT('',(5.63337527607782E-15,0.0,-92.0));
#245=DIRECTION('',(1.0,0.0,6.12323399573677E-17));
#246=DIRECTION('',(6.12323399573677E-17,0.0,-1.0));
#247=SURFACE_STYLE_FILL_AREA(#333);
#248=ORIENTED_EDGE('',*,*,#334,.F.);
#249=ORIENTED_EDGE('',*,*,#335,.T.);
#250=ORIENTED_EDGE('',*,*,#336,.F.);
#251=ORIENTED_EDGE('',*,*,#337,.F.);
#252=CARTESIAN_POINT('',(2.32682891837997E-15,0.0,-38.0));
#253=DIRECTION('',(6.12323399573676E-17,0.0,-1.0));
#254=DIRECTION('',(0.0,1.0,0.0));
#255=SURFACE_STYLE_FILL_AREA(#338);
#256=ORIENTED_EDGE('',*,*,#339,.F.);
#257=ORIENTED_EDGE('',*,*,#340,.T.);
#258=ORIENTED_EDGE('',*,*,#341,.F.);
#259=ORIENTED_EDGE('',*,*,#342,.F.);
#260=CARTESIAN_POINT('',(-1.43589837200027E-15,0.0,23.45));
#261=DIRECTION('',(6.12323399573677E-17,0.0,-1.0));
#262=DIRECTION('',(0.0,1.0,0.0));
#263=SURFACE_STYLE_FILL_AREA(#343);
#264=ORIENTED_EDGE('',*,*,#344,.F.);
#265=ORIENTED_EDGE('',*,*,#345,.T.);
#266=ORIENTED_EDGE('',*,*,#346,.F.);
#267=ORIENTED_EDGE('',*,*,#340,.F.);
#268=CARTESIAN_POINT('',(-2.96670687093446E-15,0.0,48.45));
#269=DIRECTION('',(6.12323399573677E-17,-0.0,-1.0));
#270=DIRECTION('',(0.0,1.0,0.0));
#271=SURFACE_STYLE_FILL_AREA(#347);
#272=ORIENTED_EDGE('',*,*,#345,.F.);
#273=ORIENTED_EDGE('',*,*,#348,.F.);
#274=CARTESIAN_POINT('',(-3.06161699786838E-15,2.45,50.0));
#275=DIRECTION('',(-6.12323399573677E-17,0.0,1.0));
#276=DIRECTION('',(0.0,-1.0,0.0));
#277=SURFACE_STYLE_FILL_AREA(#349);
#278=ORIENTED_EDGE('',*,*,#344,.T.);
#279=ORIENTED_EDGE('',*,*,#350,.F.);
#280=ORIENTED_EDGE('',*,*,#346,.T.);
#281=ORIENTED_EDGE('',*,*,#348,.T.);
#282=CARTESIAN_POINT('',(-2.96670687093446E-15,0.0,48.45));
#283=DIRECTION('',(6.12323399573677E-17,-0.0,-1.0));
#284=DIRECTION('',(0.0,1.0,0.0));
#285=SURFACE_STYLE_FILL_AREA(#351);
#286=ORIENTED_EDGE('',*,*,#339,.T.);
#287=ORIENTED_EDGE('',*,*,#352,.F.);
#288=ORIENTED_EDGE('',*,*,#341,.T.);
#289=ORIENTED_EDGE('',*,*,#350,.T.);
#290=CARTESIAN_POINT('',(-1.43589837200027E-15,0.0,23.45));
#291=DIRECTION('',(6.12323399573677E-17,0.0,-1.0));
#292=DIRECTION('',(0.0,1.0,0.0));
#293=SURFACE_STYLE_FILL_AREA(#353);
#294=ORIENTED_EDGE('',*,*,#335,.F.);
#295=ORIENTED_EDGE('',*,*,#354,.F.);
#296=ORIENTED_EDGE('',*,*,#342,.T.);
#297=ORIENTED_EDGE('',*,*,#352,.T.);
#298=CARTESIAN_POINT('',(0.0,7.95,0.0));
#299=DIRECTION('',(6.12323399573677E-17,0.0,-1.0));
#300=DIRECTION('',(0.0,1.0,0.0));
#301=SURFACE_STYLE_FILL_AREA(#355);
#302=ORIENTED_EDGE('',*,*,#334,.T.);
#303=ORIENTED_EDGE('',*,*,#356,.F.);
#304=ORIENTED_EDGE('',*,*,#336,.T.);
#305=ORIENTED_EDGE('',*,*,#354,.T.);
#306=CARTESIAN_POINT('',(2.32682891837997E-15,0.0,-38.0));
#307=DIRECTION('',(6.12323399573676E-17,0.0,-1.0));
#308=DIRECTION('',(0.0,1.0,0.0));
#309=SURFACE_STYLE_FILL_AREA(#357);
#310=ORIENTED_EDGE('',*,*,#337,.T.);
#311=ORIENTED_EDGE('',*,*,#356,.T.);
#312=CARTESIAN_POINT('',(4.65365783675994E-15,3.95,-76.0));
#313=DIRECTION('',(6.12323399573677E-17,0.0,-1.0));
#314=DIRECTION('',(0.0,1.0,0.0));
#315=CARTESIAN_POINT('',(0.0,8.0,0.0));
#316=VECTOR('',#358,1.0);
#317=CARTESIAN_POINT('',(0.0,-8.0,0.0));
#318=VECTOR('',#359,1.0);
#319=FILL_AREA_STYLE('',(#360));
#320=EDGE_CURVE('',#361,#362,#363,.T.);
#321=EDGE_CURVE('',#361,#364,#365,.T.);
#322=EDGE_CURVE('',#364,#362,#366,.T.);
#323=FILL_AREA_STYLE('',(#367));
#324=EDGE_CURVE('',#368,#364,#369,.T.);
#325=EDGE_CURVE('',#368,#370,#371,.T.);
#326=EDGE_CURVE('',#372,#370,#373,.T.);
#327=EDGE_CURVE('',#362,#372,#374,.T.);
#328=FILL_AREA_STYLE('',(#375));
#329=EDGE_CURVE('',#370,#368,#376,.T.);
#330=FILL_AREA_STYLE('',(#377));
#331=EDGE_CURVE('',#372,#361,#378,.T.);
#332=FILL_AREA_STYLE('',(#379));
#333=FILL_AREA_STYLE('',(#380));
#334=EDGE_CURVE('',#381,#382,#383,.T.);
#335=EDGE_CURVE('',#381,#384,#385,.T.);
#336=EDGE_CURVE('',#386,#384,#387,.T.);
#337=EDGE_CURVE('',#382,#386,#388,.T.);
#338=FILL_AREA_STYLE('',(#389));
#339=EDGE_CURVE('',#390,#391,#392,.T.);
#340=EDGE_CURVE('',#390,#393,#394,.T.);
#341=EDGE_CURVE('',#395,#393,#396,.T.);
#342=EDGE_CURVE('',#391,#395,#397,.T.);
#343=FILL_AREA_STYLE('',(#398));
#344=EDGE_CURVE('',#399,#390,#400,.T.);
#345=EDGE_CURVE('',#399,#401,#402,.T.);
#346=EDGE_CURVE('',#393,#401,#403,.T.);
#347=FILL_AREA_STYLE('',(#404));
#348=EDGE_CURVE('',#401,#399,#405,.T.);
#349=FILL_AREA_STYLE('',(#406));
#350=EDGE_CURVE('',#393,#390,#407,.T.);
#351=FILL_AREA_STYLE('',(#408));
#352=EDGE_CURVE('',#395,#391,#409,.T.);
#353=FILL_AREA_STYLE('',(#410));
#354=EDGE_CURVE('',#384,#381,#411,.T.);
#355=FILL_AREA_STYLE('',(#412));
#356=EDGE_CURVE('',#386,#382,#413,.T.);
#357=FILL_AREA_STYLE('',(#414));
#358=DIRECTION('',(0.0,-1.0,0.0));
#359=DIRECTION('',(0.0,1.0,0.0));
#360=FILL_AREA_STYLE_COLOUR('',#415);
#361=VERTEX_POINT('',#416);
#362=VERTEX_POINT('',#417);
#363=CIRCLE('',#418,8.0);
#364=VERTEX_POINT('',#419);
#365=CIRCLE('',#420,8.0);
#366=CIRCLE('',#421,8.0);
#367=FILL_AREA_STYLE_COLOUR('',#422);
#368=VERTEX_POINT('',#423);
#369=LINE('',#424,#425);
#370=VERTEX_POINT('',#426);
#371=CIRCLE('',#427,8.0);
#372=VERTEX_POINT('',#428);
#373=LINE('',#429,#430);
#374=CIRCLE('',#431,8.0);
#375=FILL_AREA_STYLE_COLOUR('',#432);
#376=CIRCLE('',#433,8.0);
#377=FILL_AREA_STYLE_COLOUR('',#434);
#378=CIRCLE('',#435,8.0);
#379=FILL_AREA_STYLE_COLOUR('',#436);
#380=FILL_AREA_STYLE_COLOUR('',#437);
#381=VERTEX_POINT('',#438);
#382=VERTEX_POINT('',#439);
#383=LINE('',#440,#441);
#384=VERTEX_POINT('',#442);
#385=CIRCLE('',#443,7.9);
#386=VERTEX_POINT('',#444);
#387=LINE('',#445,#446);
#388=CIRCLE('',#447,7.9);
#389=FILL_AREA_STYLE_COLOUR('',#448);
#390=VERTEX_POINT('',#449);
#391=VERTEX_POINT('',#450);
#392=LINE('',#451,#452);
#393=VERTEX_POINT('',#453);
#394=CIRCLE('',#454,8.0);
#395=VERTEX_POINT('',#455);
#396=LINE('',#456,#457);
#397=CIRCLE('',#458,8.0);
#398=FILL_AREA_STYLE_COLOUR('',#459);
#399=VERTEX_POINT('',#460);
#400=LINE('',#461,#462);
#401=VERTEX_POINT('',#463);
#402=CIRCLE('',#464,4.9);
#403=LINE('',#465,#466);
#404=FILL_AREA_STYLE_COLOUR('',#467);
#405=CIRCLE('',#468,4.9);
#406=FILL_AREA_STYLE_COLOUR('',#469);
#407=CIRCLE('',#470,8.0);
#408=FILL_AREA_STYLE_COLOUR('',#471);
#409=CIRCLE('',#472,8.0);
#410=FILL_AREA_STYLE_COLOUR('',#473);
#411=CIRCLE('',#474,7.9);
#412=FILL_AREA_STYLE_COLOUR('',#475);
#413=CIRCLE('',#476,7.9);
#414=FILL_AREA_STYLE_COLOUR('',#477);
#415=COLOUR_RGB('',0.800000011920929,0.800000011920929,0.800000011920929);
#416=CARTESIAN_POINT('',(-7.99999999999999,1.14096009384172E-48,-92.0));
#417=CARTESIAN_POINT('',(8.00000000000001,1.14096009384172E-48,-92.0));
#418=AXIS2_PLACEMENT_3D('',#478,#479,#480);
#419=CARTESIAN_POINT('',(5.63337527607782E-15,8.0,-92.0));
#420=AXIS2_PLACEMENT_3D('',#481,#482,#483);
#421=AXIS2_PLACEMENT_3D('',#484,#485,#486);
#422=COLOUR_RGB('',0.800000011920929,0.800000011920929,0.800000011920929);
#423=CARTESIAN_POINT('',(4.65365783675994E-15,8.0,-76.0));
#424=CARTESIAN_POINT('',(4.163799117101E-15,8.0,-84.0));
#425=VECTOR('',#487,1.0);
#426=CARTESIAN_POINT('',(5.63337527607782E-15,-8.0,-76.0));
#427=AXIS2_PLACEMENT_3D('',#488,#489,#490);
#428=CARTESIAN_POINT('',(6.61309271539571E-15,-8.0,-92.0));
#429=CARTESIAN_POINT('',(6.12323399573677E-15,-8.0,-84.0));
#430=VECTOR('',#491,1.0);
#431=AXIS2_PLACEMENT_3D('',#492,#493,#494);
#432=COLOUR_RGB('',0.800000011920929,0.800000011920929,0.800000011920929);
#433=AXIS2_PLACEMENT_3D('',#495,#496,#497);
#434=COLOUR_RGB('',0.800000011920929,0.800000011920929,0.800000011920929);
#435=AXIS2_PLACEMENT_3D('',#498,#499,#500);
#436=COLOUR_RGB('',0.800000011920929,0.800000011920929,0.800000011920929);
#437=COLOUR_RGB('',0.498039215803146,0.498039215803146,0.498039215803146);
#438=CARTESIAN_POINT('',(0.0,7.9,0.0));
#439=CARTESIAN_POINT('',(4.65365783675994E-15,7.9,-76.0));
#440=CARTESIAN_POINT('',(1.35935794705356E-15,7.9,-38.0));
#441=VECTOR('',#501,1.0);
#442=CARTESIAN_POINT('',(9.6747097132641E-16,-7.9,5.92405114151434E-32));
#443=AXIS2_PLACEMENT_3D('',#502,#503,#504);
#444=CARTESIAN_POINT('',(5.62112880808635E-15,-7.9,-76.0));
#445=CARTESIAN_POINT('',(3.29429988970638E-15,-7.9,-38.0));
#446=VECTOR('',#505,1.0);
#447=AXIS2_PLACEMENT_3D('',#506,#507,#508);
#448=COLOUR_RGB('',0.498039215803146,0.498039215803146,0.498039215803146);
#449=CARTESIAN_POINT('',(-2.87179674400054E-15,8.0,46.9));
#450=CARTESIAN_POINT('',(0.0,8.0,0.0));
#451=CARTESIAN_POINT('',(-2.41561581131815E-15,8.0,23.45));
#452=VECTOR('',#509,1.0);
#453=CARTESIAN_POINT('',(-1.89207930468266E-15,-8.0,46.9));
#454=AXIS2_PLACEMENT_3D('',#510,#511,#512);
#455=CARTESIAN_POINT('',(9.79717439317882E-16,-8.0,5.99903913064743E-32));
#456=CARTESIAN_POINT('',(-4.56180932682389E-16,-8.0,23.45));
#457=VECTOR('',#513,1.0);
#458=AXIS2_PLACEMENT_3D('',#514,#515,#516);
#459=COLOUR_RGB('',0.498039215803146,0.498039215803146,0.498039215803146);
#460=CARTESIAN_POINT('',(-3.06161699786838E-15,4.9,50.0));
#461=CARTESIAN_POINT('',(-3.75660405638451E-15,6.45,48.45));
#462=VECTOR('',#517,1.0);
#463=CARTESIAN_POINT('',(-2.46154006628618E-15,-4.9,50.0));
#464=AXIS2_PLACEMENT_3D('',#518,#519,#520);
#465=CARTESIAN_POINT('',(-2.17680968548442E-15,-6.45,48.45));
#466=VECTOR('',#521,1.0);
#467=COLOUR_RGB('',0.498039215803146,0.498039215803146,0.498039215803146);
#468=AXIS2_PLACEMENT_3D('',#522,#523,#524);
#469=COLOUR_RGB('',0.498039215803146,0.498039215803146,0.498039215803146);
#470=AXIS2_PLACEMENT_3D('',#525,#526,#527);
#471=COLOUR_RGB('',0.498039215803146,0.498039215803146,0.498039215803146);
#472=AXIS2_PLACEMENT_3D('',#528,#529,#530);
#473=COLOUR_RGB('',0.498039215803146,0.498039215803146,0.498039215803146);
#474=AXIS2_PLACEMENT_3D('',#531,#532,#533);
#475=COLOUR_RGB('',0.498039215803146,0.498039215803146,0.498039215803146);
#476=AXIS2_PLACEMENT_3D('',#534,#535,#536);
#477=COLOUR_RGB('',0.498039215803146,0.498039215803146,0.498039215803146);
#478=CARTESIAN_POINT('',(5.63337527607782E-15,0.0,-92.0));
#479=DIRECTION('',(-7.49879891330929E-33,-1.0,1.22464679914735E-16));
#480=DIRECTION('',(0.0,1.22464679914735E-16,1.0));
#481=CARTESIAN_POINT('',(5.63337527607782E-15,0.0,-92.0));
#482=DIRECTION('',(6.12323399573677E-17,0.0,-1.0));
#483=DIRECTION('',(0.0,1.0,0.0));
#484=CARTESIAN_POINT('',(5.63337527607782E-15,0.0,-92.0));
#485=DIRECTION('',(6.12323399573677E-17,0.0,-1.0));
#486=DIRECTION('',(0.0,1.0,0.0));
#487=DIRECTION('',(6.12323399573677E-17,0.0,-1.0));
#488=CARTESIAN_POINT('',(4.65365783675994E-15,0.0,-76.0));
#489=DIRECTION('',(6.12323399573677E-17,0.0,-1.0));
#490=DIRECTION('',(0.0,1.0,0.0));
#491=DIRECTION('',(-6.12323399573677E-17,-0.0,1.0));
#492=CARTESIAN_POINT('',(5.63337527607782E-15,0.0,-92.0));
#493=DIRECTION('',(6.12323399573677E-17,0.0,-1.0));
#494=DIRECTION('',(0.0,1.0,0.0));
#495=CARTESIAN_POINT('',(4.65365783675994E-15,0.0,-76.0));
#496=DIRECTION('',(6.12323399573677E-17,0.0,-1.0));
#497=DIRECTION('',(0.0,1.0,0.0));
#498=CARTESIAN_POINT('',(5.63337527607782E-15,0.0,-92.0));
#499=DIRECTION('',(6.12323399573677E-17,0.0,-1.0));
#500=DIRECTION('',(0.0,1.0,0.0));
#501=DIRECTION('',(6.12323399573676E-17,0.0,-1.0));
#502=CARTESIAN_POINT('',(0.0,0.0,0.0));
#503=DIRECTION('',(6.12323399573676E-17,0.0,-1.0));
#504=DIRECTION('',(0.0,1.0,0.0));
#505=DIRECTION('',(-6.12323399573676E-17,-0.0,1.0));
#506=CARTESIAN_POINT('',(4.65365783675994E-15,0.0,-76.0));
#507=DIRECTION('',(6.12323399573676E-17,0.0,-1.0));
#508=DIRECTION('',(0.0,1.0,0.0));
#509=DIRECTION('',(6.12323399573677E-17,0.0,-1.0));
#510=CARTESIAN_POINT('',(-2.87179674400054E-15,0.0,46.9));
#511=DIRECTION('',(6.12323399573677E-17,0.0,-1.0));
#512=DIRECTION('',(0.0,1.0,0.0));
#513=DIRECTION('',(-6.12323399573677E-17,-0.0,1.0));
#514=CARTESIAN_POINT('',(0.0,0.0,0.0));
#515=DIRECTION('',(6.12323399573677E-17,0.0,-1.0));
#516=DIRECTION('',(0.0,1.0,0.0));
#517=DIRECTION('',(-4.32978028117746E-17,0.707106781186547,-0.707106781186548));
#518=CARTESIAN_POINT('',(-3.06161699786838E-15,0.0,50.0));
#519=DIRECTION('',(6.12323399573677E-17,0.0,-1.0));
#520=DIRECTION('',(0.0,1.0,0.0));
#521=DIRECTION('',(-1.29893408435324E-16,0.707106781186547,0.707106781186548));
#522=CARTESIAN_POINT('',(-3.06161699786838E-15,0.0,50.0));
#523=DIRECTION('',(6.12323399573677E-17,0.0,-1.0));
#524=DIRECTION('',(0.0,1.0,0.0));
#525=CARTESIAN_POINT('',(-2.87179674400054E-15,0.0,46.9));
#526=DIRECTION('',(6.12323399573677E-17,0.0,-1.0));
#527=DIRECTION('',(0.0,1.0,0.0));
#528=CARTESIAN_POINT('',(0.0,0.0,0.0));
#529=DIRECTION('',(6.12323399573677E-17,0.0,-1.0));
#530=DIRECTION('',(0.0,1.0,0.0));
#531=CARTESIAN_POINT('',(0.0,0.0,0.0));
#532=DIRECTION('',(6.12323399573676E-17,0.0,-1.0));
#533=DIRECTION('',(0.0,1.0,0.0));
#534=CARTESIAN_POINT('',(4.65365783675994E-15,0.0,-76.0));
#535=DIRECTION('',(6.12323399573676E-17,0.0,-1.0));
#536=DIRECTION('',(0.0,1.0,0.0));
#537=DIRECTION('',(0.0,0.0,1.0));
#538=DIRECTION('',(1.0,0.0,0.0));
#539=CARTESIAN_POINT('',(0.0,0.0,50.000000));
#540=AXIS2_PLACEMENT_3D('PCS', #539,#537,#538);
#541=CARTESIAN_POINT('',(0.0,0.0,0.000000));
#542=AXIS2_PLACEMENT_3D('MCS', #541,#537,#538);
#543=CARTESIAN_POINT('',(0.0,0.0,-100.000000));
#544=AXIS2_PLACEMENT_3D('CIP', #543,#537,#538);
ENDSEC;
END-ISO-10303-21;
