ISO-10303-21;
HEADER;
FILE_DESCRIPTION(('STEP AP214'),'1');
FILE_NAME('607689430-000-00-E43.stp','2022-03-10T15:10:12',(' '),(' '),'Spatial InterOp 3D',' ',' ');
FILE_SCHEMA(('AUTOMOTIVE_DESIGN { 1 0 10303 214 1 1 1 1 }'));
ENDSEC;
DATA;
#1=MECHANICAL_DESIGN_GEOMETRIC_PRESENTATION_REPRESENTATION(' ',(#12,#13,#14,#15,#16,#17,#18,#19,#20,#21,#22,#23,#24,#25,#26,#27,#28,#29),#8);
#2=PRODUCT_DEFINITION_CONTEXT('',#30,'design');
#3=APPLICATION_PROTOCOL_DEFINITION('INTERNATIONAL STANDARD','automotive_design',1994,#30);
#4=PRODUCT_CATEGORY_RELATIONSHIP('NONE','NONE',#31,#32);
#5=SHAPE_DEFINITION_REPRESENTATION(#33,#34);
#6=SHAPE_DEFINITION_REPRESENTATION(#33,#35);
#7=SHAPE_DEFINITION_REPRESENTATION(#33,#36);
#8= (GEOMETRIC_REPRESENTATION_CONTEXT(3)GLOBAL_UNCERTAINTY_ASSIGNED_CONTEXT((#39))GLOBAL_UNIT_ASSIGNED_CONTEXT((#41,#42,#43))REPRESENTATION_CONTEXT('NONE','WORKSPACE'));
#12=STYLED_ITEM('',(#45),#46);
#13=STYLED_ITEM('',(#47),#48);
#14=STYLED_ITEM('',(#49),#50);
#15=STYLED_ITEM('',(#51),#52);
#16=STYLED_ITEM('',(#53),#54);
#17=STYLED_ITEM('',(#55),#56);
#18=STYLED_ITEM('',(#57),#58);
#19=STYLED_ITEM('',(#59),#60);
#20=STYLED_ITEM('',(#61),#62);
#21=STYLED_ITEM('',(#63),#64);
#22=STYLED_ITEM('',(#65),#66);
#23=STYLED_ITEM('',(#67),#68);
#24=STYLED_ITEM('',(#69),#70);
#25=STYLED_ITEM('',(#71),#72);
#26=STYLED_ITEM('',(#73),#74);
#27=STYLED_ITEM('',(#75),#76);
#28=STYLED_ITEM('',(#77),#78);
#29=STYLED_ITEM('',(#79),#80);
#30=APPLICATION_CONTEXT(' ');
#31=PRODUCT_CATEGORY('part','NONE');
#32=PRODUCT_RELATED_PRODUCT_CATEGORY('detail',' ',(#81));
#33=PRODUCT_DEFINITION_SHAPE('NONE','NONE',#82);
#34=ADVANCED_BREP_SHAPE_REPRESENTATION('1',(#83,#84),#8);
#35=ADVANCED_BREP_SHAPE_REPRESENTATION('2',(#85,#86),#8);
#36=GEOMETRICALLY_BOUNDED_SURFACE_SHAPE_REPRESENTATION('3',(#87,#88),#8);
#39=UNCERTAINTY_MEASURE_WITH_UNIT(LENGTH_MEASURE(1.0E-06),#41,'','');
#41= (CONVERSION_BASED_UNIT('MILLIMETRE',#91)LENGTH_UNIT()NAMED_UNIT(#94));
#42= (NAMED_UNIT(#96)PLANE_ANGLE_UNIT()SI_UNIT($,.RADIAN.));
#43= (NAMED_UNIT(#96)SOLID_ANGLE_UNIT()SI_UNIT($,.STERADIAN.));
#45=PRESENTATION_STYLE_ASSIGNMENT((#102));
#46=COMPOSITE_CURVE('',(#103),.U.);
#47=PRESENTATION_STYLE_ASSIGNMENT((#104));
#48=COMPOSITE_CURVE('',(#105,#106,#107,#108,#109,#110,#111),.U.);
#49=PRESENTATION_STYLE_ASSIGNMENT((#112));
#50=ADVANCED_FACE('',(#113),#114,.T.);
#51=PRESENTATION_STYLE_ASSIGNMENT((#115));
#52=ADVANCED_FACE('',(#116),#117,.T.);
#53=PRESENTATION_STYLE_ASSIGNMENT((#118));
#54=ADVANCED_FACE('',(#119),#120,.T.);
#55=PRESENTATION_STYLE_ASSIGNMENT((#121));
#56=ADVANCED_FACE('',(#122),#123,.T.);
#57=PRESENTATION_STYLE_ASSIGNMENT((#124));
#58=ADVANCED_FACE('',(#125),#126,.T.);
#59=PRESENTATION_STYLE_ASSIGNMENT((#127));
#60=ADVANCED_FACE('',(#128),#129,.T.);
#61=PRESENTATION_STYLE_ASSIGNMENT((#130));
#62=ADVANCED_FACE('',(#131,#132),#133,.T.);
#63=PRESENTATION_STYLE_ASSIGNMENT((#134));
#64=ADVANCED_FACE('',(#135),#136,.T.);
#65=PRESENTATION_STYLE_ASSIGNMENT((#137));
#66=ADVANCED_FACE('',(#138),#139,.T.);
#67=PRESENTATION_STYLE_ASSIGNMENT((#140));
#68=COMPOSITE_CURVE('',(#141,#142,#143,#144,#145),.U.);
#69=PRESENTATION_STYLE_ASSIGNMENT((#146));
#70=ADVANCED_FACE('',(#147),#148,.T.);
#71=PRESENTATION_STYLE_ASSIGNMENT((#149));
#72=ADVANCED_FACE('',(#150),#151,.T.);
#73=PRESENTATION_STYLE_ASSIGNMENT((#152));
#74=ADVANCED_FACE('',(#153),#154,.T.);
#75=PRESENTATION_STYLE_ASSIGNMENT((#155));
#76=ADVANCED_FACE('',(#156),#157,.T.);
#77=PRESENTATION_STYLE_ASSIGNMENT((#158));
#78=ADVANCED_FACE('',(#159),#160,.T.);
#79=PRESENTATION_STYLE_ASSIGNMENT((#161));
#80=ADVANCED_FACE('',(#162),#163,.T.);
#81=PRODUCT('1','','PART--DESC',(#164));
#82=PRODUCT_DEFINITION('','NONE',#165,#2);
#83=MANIFOLD_SOLID_BREP('1',#166);
#84=AXIS2_PLACEMENT_3D('',#167,#168,#169);
#85=MANIFOLD_SOLID_BREP('2',#170);
#86=AXIS2_PLACEMENT_3D('',#171,#172,#173);
#87=GEOMETRIC_SET('3',(#46,#48,#68));
#88=AXIS2_PLACEMENT_3D('',#174,#175,#176);
#91=LENGTH_MEASURE_WITH_UNIT(LENGTH_MEASURE(1.0),#177);
#94=DIMENSIONAL_EXPONENTS(1.0,0.0,0.0,0.0,0.0,0.0,0.0);
#96=DIMENSIONAL_EXPONENTS(0.0,0.0,0.0,0.0,0.0,0.0,0.0);
#102=CURVE_STYLE('',#178,POSITIVE_LENGTH_MEASURE(1.0E-06),#179);
#103=COMPOSITE_CURVE_SEGMENT(.CONTINUOUS.,.T.,#180);
#104=CURVE_STYLE('',#181,POSITIVE_LENGTH_MEASURE(1.0E-06),#182);
#105=COMPOSITE_CURVE_SEGMENT(.CONTINUOUS.,.T.,#183);
#106=COMPOSITE_CURVE_SEGMENT(.CONTINUOUS.,.T.,#184);
#107=COMPOSITE_CURVE_SEGMENT(.CONTINUOUS.,.T.,#185);
#108=COMPOSITE_CURVE_SEGMENT(.CONTINUOUS.,.T.,#186);
#109=COMPOSITE_CURVE_SEGMENT(.CONTINUOUS.,.T.,#187);
#110=COMPOSITE_CURVE_SEGMENT(.CONTINUOUS.,.T.,#188);
#111=COMPOSITE_CURVE_SEGMENT(.CONTINUOUS.,.T.,#189);
#112=SURFACE_STYLE_USAGE(.BOTH.,#190);
#113=FACE_OUTER_BOUND('',#191,.T.);
#114=CYLINDRICAL_SURFACE('',#192,3.69999999999999);
#115=SURFACE_STYLE_USAGE(.BOTH.,#193);
#116=FACE_OUTER_BOUND('',#194,.T.);
#117=CYLINDRICAL_SURFACE('',#195,4.00000000000003);
#118=SURFACE_STYLE_USAGE(.BOTH.,#196);
#119=FACE_OUTER_BOUND('',#197,.T.);
#120=CONICAL_SURFACE('',#198,3.59999999999999,0.785398163397448);
#121=SURFACE_STYLE_USAGE(.BOTH.,#199);
#122=FACE_OUTER_BOUND('',#200,.T.);
#123=PLANE('',#201);
#124=SURFACE_STYLE_USAGE(.BOTH.,#202);
#125=FACE_OUTER_BOUND('',#203,.T.);
#126=CONICAL_SURFACE('',#204,3.59999999999999,0.785398163397448);
#127=SURFACE_STYLE_USAGE(.BOTH.,#205);
#128=FACE_OUTER_BOUND('',#206,.T.);
#129=CYLINDRICAL_SURFACE('',#207,4.00000000000003);
#130=SURFACE_STYLE_USAGE(.BOTH.,#208);
#131=FACE_BOUND('',#209,.T.);
#132=FACE_OUTER_BOUND('',#210,.T.);
#133=PLANE('',#211);
#134=SURFACE_STYLE_USAGE(.BOTH.,#212);
#135=FACE_OUTER_BOUND('',#213,.T.);
#136=CYLINDRICAL_SURFACE('',#214,3.69999999999999);
#137=SURFACE_STYLE_USAGE(.BOTH.,#215);
#138=FACE_OUTER_BOUND('',#216,.T.);
#139=PLANE('',#217);
#140=CURVE_STYLE('',#218,POSITIVE_LENGTH_MEASURE(1.0E-06),#219);
#141=COMPOSITE_CURVE_SEGMENT(.CONTINUOUS.,.T.,#220);
#142=COMPOSITE_CURVE_SEGMENT(.CONTINUOUS.,.T.,#221);
#143=COMPOSITE_CURVE_SEGMENT(.CONTINUOUS.,.T.,#222);
#144=COMPOSITE_CURVE_SEGMENT(.CONTINUOUS.,.T.,#223);
#145=COMPOSITE_CURVE_SEGMENT(.CONTINUOUS.,.T.,#224);
#146=SURFACE_STYLE_USAGE(.BOTH.,#225);
#147=FACE_OUTER_BOUND('',#226,.T.);
#148=CONICAL_SURFACE('',#227,3.80000000000005,0.785398163397484);
#149=SURFACE_STYLE_USAGE(.BOTH.,#228);
#150=FACE_OUTER_BOUND('',#229,.T.);
#151=CYLINDRICAL_SURFACE('',#230,4.00000000000006);
#152=SURFACE_STYLE_USAGE(.BOTH.,#231);
#153=FACE_OUTER_BOUND('',#232,.T.);
#154=PLANE('',#233);
#155=SURFACE_STYLE_USAGE(.BOTH.,#234);
#156=FACE_OUTER_BOUND('',#235,.T.);
#157=CYLINDRICAL_SURFACE('',#236,4.00000000000006);
#158=SURFACE_STYLE_USAGE(.BOTH.,#237);
#159=FACE_OUTER_BOUND('',#238,.T.);
#160=CONICAL_SURFACE('',#239,3.80000000000005,0.785398163397484);
#161=SURFACE_STYLE_USAGE(.BOTH.,#240);
#162=FACE_OUTER_BOUND('',#241,.T.);
#163=PLANE('',#242);
#164=PRODUCT_CONTEXT('',#30,'mechanical');
#165=PRODUCT_DEFINITION_FORMATION_WITH_SPECIFIED_SOURCE(' ','NONE',#81,.NOT_KNOWN.);
#166=CLOSED_SHELL('',(#50,#52,#54,#56,#58,#60,#62,#64,#66));
#167=CARTESIAN_POINT('',(0.0,0.0,0.0));
#168=DIRECTION('',(0.0,0.0,1.0));
#169=DIRECTION('',(1.0,0.0,0.0));
#170=CLOSED_SHELL('',(#70,#72,#74,#76,#78,#80));
#171=CARTESIAN_POINT('',(0.0,0.0,0.0));
#172=DIRECTION('',(0.0,0.0,1.0));
#173=DIRECTION('',(1.0,0.0,0.0));
#174=CARTESIAN_POINT('',(0.0,0.0,0.0));
#175=DIRECTION('',(0.0,0.0,1.0));
#176=DIRECTION('',(1.0,0.0,0.0));
#177= (NAMED_UNIT(#94)LENGTH_UNIT()SI_UNIT(.MILLI.,.METRE.));
#178=DRAUGHTING_PRE_DEFINED_CURVE_FONT('continuous');
#179=COLOUR_RGB('',0.0,1.0,0.0);
#180=TRIMMED_CURVE('',#244,(PARAMETER_VALUE(0.0)),(PARAMETER_VALUE(4.00000000000001)),.T.,.UNSPECIFIED.);
#181=DRAUGHTING_PRE_DEFINED_CURVE_FONT('continuous');
#182=COLOUR_RGB('',0.498039215803146,0.498039215803146,0.498039215803146);
#183=TRIMMED_CURVE('',#245,(PARAMETER_VALUE(0.0)),(PARAMETER_VALUE(3.69999999999999)),.T.,.UNSPECIFIED.);
#184=TRIMMED_CURVE('',#246,(PARAMETER_VALUE(0.0)),(PARAMETER_VALUE(5.0)),.T.,.UNSPECIFIED.);
#185=TRIMMED_CURVE('',#247,(PARAMETER_VALUE(0.0)),(PARAMETER_VALUE(0.300000000000097)),.T.,.UNSPECIFIED.);
#186=TRIMMED_CURVE('',#248,(PARAMETER_VALUE(0.0)),(PARAMETER_VALUE(35.2)),.T.,.UNSPECIFIED.);
#187=TRIMMED_CURVE('',#249,(PARAMETER_VALUE(0.0)),(PARAMETER_VALUE(1.13137084989841)),.T.,.UNSPECIFIED.);
#188=TRIMMED_CURVE('',#250,(PARAMETER_VALUE(0.0)),(PARAMETER_VALUE(3.20000000000002)),.T.,.UNSPECIFIED.);
#189=TRIMMED_CURVE('',#251,(PARAMETER_VALUE(0.0)),(PARAMETER_VALUE(41.0)),.T.,.UNSPECIFIED.);
#190=SURFACE_SIDE_STYLE('',(#252));
#191=EDGE_LOOP('',(#253,#254,#255,#256));
#192=AXIS2_PLACEMENT_3D('',#257,#258,#259);
#193=SURFACE_SIDE_STYLE('',(#260));
#194=EDGE_LOOP('',(#261,#262,#263,#264));
#195=AXIS2_PLACEMENT_3D('',#265,#266,#267);
#196=SURFACE_SIDE_STYLE('',(#268));
#197=EDGE_LOOP('',(#269,#270,#271,#272));
#198=AXIS2_PLACEMENT_3D('',#273,#274,#275);
#199=SURFACE_SIDE_STYLE('',(#276));
#200=EDGE_LOOP('',(#277,#278));
#201=AXIS2_PLACEMENT_3D('',#279,#280,#281);
#202=SURFACE_SIDE_STYLE('',(#282));
#203=EDGE_LOOP('',(#283,#284,#285,#286));
#204=AXIS2_PLACEMENT_3D('',#287,#288,#289);
#205=SURFACE_SIDE_STYLE('',(#290));
#206=EDGE_LOOP('',(#291,#292,#293,#294));
#207=AXIS2_PLACEMENT_3D('',#295,#296,#297);
#208=SURFACE_SIDE_STYLE('',(#298));
#209=EDGE_LOOP('',(#299,#300));
#210=EDGE_LOOP('',(#301,#302));
#211=AXIS2_PLACEMENT_3D('',#303,#304,#305);
#212=SURFACE_SIDE_STYLE('',(#306));
#213=EDGE_LOOP('',(#307,#308,#309,#310));
#214=AXIS2_PLACEMENT_3D('',#311,#312,#313);
#215=SURFACE_SIDE_STYLE('',(#314));
#216=EDGE_LOOP('',(#315,#316));
#217=AXIS2_PLACEMENT_3D('',#317,#318,#319);
#218=DRAUGHTING_PRE_DEFINED_CURVE_FONT('continuous');
#219=COLOUR_RGB('',0.0,0.0,1.0);
#220=TRIMMED_CURVE('',#320,(PARAMETER_VALUE(0.0)),(PARAMETER_VALUE(3.60000000000004)),.T.,.UNSPECIFIED.);
#221=TRIMMED_CURVE('',#321,(PARAMETER_VALUE(0.0)),(PARAMETER_VALUE(0.565685424949226)),.T.,.UNSPECIFIED.);
#222=TRIMMED_CURVE('',#322,(PARAMETER_VALUE(0.0)),(PARAMETER_VALUE(39.6)),.T.,.UNSPECIFIED.);
#223=TRIMMED_CURVE('',#323,(PARAMETER_VALUE(0.0)),(PARAMETER_VALUE(4.00000000000006)),.T.,.UNSPECIFIED.);
#224=TRIMMED_CURVE('',#324,(PARAMETER_VALUE(0.0)),(PARAMETER_VALUE(40.0)),.T.,.UNSPECIFIED.);
#225=SURFACE_SIDE_STYLE('',(#325));
#226=EDGE_LOOP('',(#326,#327,#328,#329));
#227=AXIS2_PLACEMENT_3D('',#330,#331,#332);
#228=SURFACE_SIDE_STYLE('',(#333));
#229=EDGE_LOOP('',(#334,#335,#336,#337));
#230=AXIS2_PLACEMENT_3D('',#338,#339,#340);
#231=SURFACE_SIDE_STYLE('',(#341));
#232=EDGE_LOOP('',(#342,#343));
#233=AXIS2_PLACEMENT_3D('',#344,#345,#346);
#234=SURFACE_SIDE_STYLE('',(#347));
#235=EDGE_LOOP('',(#348,#349,#350,#351));
#236=AXIS2_PLACEMENT_3D('',#352,#353,#354);
#237=SURFACE_SIDE_STYLE('',(#355));
#238=EDGE_LOOP('',(#356,#357,#358,#359));
#239=AXIS2_PLACEMENT_3D('',#360,#361,#362);
#240=SURFACE_SIDE_STYLE('',(#363));
#241=EDGE_LOOP('',(#364,#365));
#242=AXIS2_PLACEMENT_3D('',#366,#367,#368);
#244=LINE('',#369,#370);
#245=LINE('',#371,#372);
#246=LINE('',#373,#374);
#247=LINE('',#375,#376);
#248=LINE('',#377,#378);
#249=LINE('',#379,#380);
#250=LINE('',#381,#382);
#251=LINE('',#383,#384);
#252=SURFACE_STYLE_FILL_AREA(#385);
#253=ORIENTED_EDGE('',*,*,#386,.F.);
#254=ORIENTED_EDGE('',*,*,#387,.T.);
#255=ORIENTED_EDGE('',*,*,#388,.F.);
#256=ORIENTED_EDGE('',*,*,#389,.F.);
#257=CARTESIAN_POINT('',(1.53080849893419E-16,0.0,-2.5));
#258=DIRECTION('',(6.12323399573677E-17,0.0,-1.0));
#259=DIRECTION('',(0.0,1.0,0.0));
#260=SURFACE_STYLE_FILL_AREA(#390);
#261=ORIENTED_EDGE('',*,*,#391,.F.);
#262=ORIENTED_EDGE('',*,*,#392,.T.);
#263=ORIENTED_EDGE('',*,*,#393,.F.);
#264=ORIENTED_EDGE('',*,*,#394,.F.);
#265=CARTESIAN_POINT('',(-1.07768918324967E-15,0.0,17.6));
#266=DIRECTION('',(6.12323399573676E-17,0.0,-1.0));
#267=DIRECTION('',(0.0,1.0,0.0));
#268=SURFACE_STYLE_FILL_AREA(#395);
#269=ORIENTED_EDGE('',*,*,#396,.F.);
#270=ORIENTED_EDGE('',*,*,#397,.T.);
#271=ORIENTED_EDGE('',*,*,#398,.F.);
#272=ORIENTED_EDGE('',*,*,#392,.F.);
#273=CARTESIAN_POINT('',(-2.17987130248229E-15,0.0,35.6));
#274=DIRECTION('',(6.12323399573677E-17,-0.0,-1.0));
#275=DIRECTION('',(0.0,1.0,0.0));
#276=SURFACE_STYLE_FILL_AREA(#399);
#277=ORIENTED_EDGE('',*,*,#397,.F.);
#278=ORIENTED_EDGE('',*,*,#400,.F.);
#279=CARTESIAN_POINT('',(-2.20436423846524E-15,1.60000000000001,36.0));
#280=DIRECTION('',(-6.12323399573677E-17,0.0,1.0));
#281=DIRECTION('',(0.0,-1.0,0.0));
#282=SURFACE_STYLE_FILL_AREA(#401);
#283=ORIENTED_EDGE('',*,*,#396,.T.);
#284=ORIENTED_EDGE('',*,*,#402,.F.);
#285=ORIENTED_EDGE('',*,*,#398,.T.);
#286=ORIENTED_EDGE('',*,*,#400,.T.);
#287=CARTESIAN_POINT('',(-2.17987130248229E-15,0.0,35.6));
#288=DIRECTION('',(6.12323399573677E-17,-0.0,-1.0));
#289=DIRECTION('',(0.0,1.0,0.0));
#290=SURFACE_STYLE_FILL_AREA(#403);
#291=ORIENTED_EDGE('',*,*,#391,.T.);
#292=ORIENTED_EDGE('',*,*,#404,.F.);
#293=ORIENTED_EDGE('',*,*,#393,.T.);
#294=ORIENTED_EDGE('',*,*,#402,.T.);
#295=CARTESIAN_POINT('',(-1.07768918324967E-15,0.0,17.6));
#296=DIRECTION('',(6.12323399573676E-17,0.0,-1.0));
#297=DIRECTION('',(0.0,1.0,0.0));
#298=SURFACE_STYLE_FILL_AREA(#405);
#299=ORIENTED_EDGE('',*,*,#387,.F.);
#300=ORIENTED_EDGE('',*,*,#406,.F.);
#301=ORIENTED_EDGE('',*,*,#394,.T.);
#302=ORIENTED_EDGE('',*,*,#404,.T.);
#303=CARTESIAN_POINT('',(0.0,3.85000000000004,0.0));
#304=DIRECTION('',(6.12323399573677E-17,0.0,-1.0));
#305=DIRECTION('',(0.0,1.0,0.0));
#306=SURFACE_STYLE_FILL_AREA(#407);
#307=ORIENTED_EDGE('',*,*,#386,.T.);
#308=ORIENTED_EDGE('',*,*,#408,.F.);
#309=ORIENTED_EDGE('',*,*,#388,.T.);
#310=ORIENTED_EDGE('',*,*,#406,.T.);
#311=CARTESIAN_POINT('',(1.53080849893419E-16,0.0,-2.5));
#312=DIRECTION('',(6.12323399573677E-17,0.0,-1.0));
#313=DIRECTION('',(0.0,1.0,0.0));
#314=SURFACE_STYLE_FILL_AREA(#409);
#315=ORIENTED_EDGE('',*,*,#389,.T.);
#316=ORIENTED_EDGE('',*,*,#408,.T.);
#317=CARTESIAN_POINT('',(3.06161699786838E-16,1.84999999999999,-5.0));
#318=DIRECTION('',(6.12323399573677E-17,0.0,-1.0));
#319=DIRECTION('',(0.0,1.0,0.0));
#320=LINE('',#410,#411);
#321=LINE('',#412,#413);
#322=LINE('',#414,#415);
#323=LINE('',#416,#417);
#324=LINE('',#418,#419);
#325=SURFACE_STYLE_FILL_AREA(#420);
#326=ORIENTED_EDGE('',*,*,#421,.F.);
#327=ORIENTED_EDGE('',*,*,#422,.T.);
#328=ORIENTED_EDGE('',*,*,#423,.F.);
#329=ORIENTED_EDGE('',*,*,#424,.F.);
#330=CARTESIAN_POINT('',(2.74320883009007E-15,0.0,-44.8));
#331=DIRECTION('',(-6.12323399573677E-17,-0.0,1.0));
#332=DIRECTION('',(0.0,1.0,0.0));
#333=SURFACE_STYLE_FILL_AREA(#425);
#334=ORIENTED_EDGE('',*,*,#426,.F.);
#335=ORIENTED_EDGE('',*,*,#427,.T.);
#336=ORIENTED_EDGE('',*,*,#428,.F.);
#337=ORIENTED_EDGE('',*,*,#422,.F.);
#338=CARTESIAN_POINT('',(1.51856203094272E-15,0.0,-24.8));
#339=DIRECTION('',(6.12323399573677E-17,0.0,-1.0));
#340=DIRECTION('',(0.0,1.0,0.0));
#341=SURFACE_STYLE_FILL_AREA(#429);
#342=ORIENTED_EDGE('',*,*,#427,.F.);
#343=ORIENTED_EDGE('',*,*,#430,.F.);
#344=CARTESIAN_POINT('',(3.06161699786838E-16,2.00000000000003,-5.0));
#345=DIRECTION('',(-6.12323399573677E-17,0.0,1.0));
#346=DIRECTION('',(0.0,-1.0,0.0));
#347=SURFACE_STYLE_FILL_AREA(#431);
#348=ORIENTED_EDGE('',*,*,#426,.T.);
#349=ORIENTED_EDGE('',*,*,#432,.F.);
#350=ORIENTED_EDGE('',*,*,#428,.T.);
#351=ORIENTED_EDGE('',*,*,#430,.T.);
#352=CARTESIAN_POINT('',(1.51856203094272E-15,0.0,-24.8));
#353=DIRECTION('',(6.12323399573677E-17,0.0,-1.0));
#354=DIRECTION('',(0.0,1.0,0.0));
#355=SURFACE_STYLE_FILL_AREA(#433);
#356=ORIENTED_EDGE('',*,*,#421,.T.);
#357=ORIENTED_EDGE('',*,*,#434,.F.);
#358=ORIENTED_EDGE('',*,*,#423,.T.);
#359=ORIENTED_EDGE('',*,*,#432,.T.);
#360=CARTESIAN_POINT('',(2.74320883009007E-15,0.0,-44.8));
#361=DIRECTION('',(-6.12323399573677E-17,-0.0,1.0));
#362=DIRECTION('',(0.0,1.0,0.0));
#363=SURFACE_STYLE_FILL_AREA(#435);
#364=ORIENTED_EDGE('',*,*,#424,.T.);
#365=ORIENTED_EDGE('',*,*,#434,.T.);
#366=CARTESIAN_POINT('',(2.75545529808154E-15,1.80000000000003,-45.0));
#367=DIRECTION('',(6.12323399573677E-17,0.0,-1.0));
#368=DIRECTION('',(0.0,1.0,0.0));
#369=CARTESIAN_POINT('',(0.0,4.00000000000009,0.0));
#370=VECTOR('',#436,1.0);
#371=CARTESIAN_POINT('',(3.06161699786838E-16,0.0,-5.0));
#372=VECTOR('',#437,1.0);
#373=CARTESIAN_POINT('',(3.06161699786838E-16,3.69999999999999,-5.0));
#374=VECTOR('',#438,1.0);
#375=CARTESIAN_POINT('',(0.0,3.69999999999999,0.0));
#376=VECTOR('',#439,1.0);
#377=CARTESIAN_POINT('',(0.0,4.00000000000009,0.0));
#378=VECTOR('',#440,1.0);
#379=CARTESIAN_POINT('',(-2.15537836649934E-15,3.99999999999997,35.2));
#380=VECTOR('',#441,1.0);
#381=CARTESIAN_POINT('',(-2.20436423846524E-15,3.20000000000002,36.0));
#382=VECTOR('',#442,1.0);
#383=CARTESIAN_POINT('',(-2.20436423846524E-15,0.0,36.0));
#384=VECTOR('',#443,1.0);
#385=FILL_AREA_STYLE('',(#444));
#386=EDGE_CURVE('',#445,#446,#447,.T.);
#387=EDGE_CURVE('',#445,#448,#449,.T.);
#388=EDGE_CURVE('',#450,#448,#451,.T.);
#389=EDGE_CURVE('',#446,#450,#452,.T.);
#390=FILL_AREA_STYLE('',(#453));
#391=EDGE_CURVE('',#454,#455,#456,.T.);
#392=EDGE_CURVE('',#454,#457,#458,.T.);
#393=EDGE_CURVE('',#459,#457,#460,.T.);
#394=EDGE_CURVE('',#455,#459,#461,.T.);
#395=FILL_AREA_STYLE('',(#462));
#396=EDGE_CURVE('',#463,#454,#464,.T.);
#397=EDGE_CURVE('',#463,#465,#466,.T.);
#398=EDGE_CURVE('',#457,#465,#467,.T.);
#399=FILL_AREA_STYLE('',(#468));
#400=EDGE_CURVE('',#465,#463,#469,.T.);
#401=FILL_AREA_STYLE('',(#470));
#402=EDGE_CURVE('',#457,#454,#471,.T.);
#403=FILL_AREA_STYLE('',(#472));
#404=EDGE_CURVE('',#459,#455,#473,.T.);
#405=FILL_AREA_STYLE('',(#474));
#406=EDGE_CURVE('',#448,#445,#475,.T.);
#407=FILL_AREA_STYLE('',(#476));
#408=EDGE_CURVE('',#450,#446,#477,.T.);
#409=FILL_AREA_STYLE('',(#478));
#410=CARTESIAN_POINT('',(2.75545529808154E-15,1.4210854715202E-14,-45.0));
#411=VECTOR('',#479,1.0);
#412=CARTESIAN_POINT('',(2.75545529808154E-15,3.60000000000005,-45.0));
#413=VECTOR('',#480,1.0);
#414=CARTESIAN_POINT('',(2.7309623620986E-15,4.00000000000006,-44.6));
#415=VECTOR('',#481,1.0);
#416=CARTESIAN_POINT('',(3.06161699786838E-16,4.00000000000006,-5.0));
#417=VECTOR('',#482,1.0);
#418=CARTESIAN_POINT('',(3.06161699786838E-16,0.0,-5.0));
#419=VECTOR('',#483,1.0);
#420=FILL_AREA_STYLE('',(#484));
#421=EDGE_CURVE('',#485,#486,#487,.T.);
#422=EDGE_CURVE('',#485,#488,#489,.T.);
#423=EDGE_CURVE('',#490,#488,#491,.T.);
#424=EDGE_CURVE('',#486,#490,#492,.T.);
#425=FILL_AREA_STYLE('',(#493));
#426=EDGE_CURVE('',#494,#485,#495,.T.);
#427=EDGE_CURVE('',#494,#496,#497,.T.);
#428=EDGE_CURVE('',#488,#496,#498,.T.);
#429=FILL_AREA_STYLE('',(#499));
#430=EDGE_CURVE('',#496,#494,#500,.T.);
#431=FILL_AREA_STYLE('',(#501));
#432=EDGE_CURVE('',#488,#485,#502,.T.);
#433=FILL_AREA_STYLE('',(#503));
#434=EDGE_CURVE('',#490,#486,#504,.T.);
#435=FILL_AREA_STYLE('',(#505));
#436=DIRECTION('',(0.0,-1.0,0.0));
#437=DIRECTION('',(0.0,1.0,0.0));
#438=DIRECTION('',(-6.12323399573677E-17,0.0,1.0));
#439=DIRECTION('',(0.0,1.0,0.0));
#440=DIRECTION('',(-6.12323399573677E-17,-3.22973970800045E-15,1.0));
#441=DIRECTION('',(-4.32978028117748E-17,-0.707106781186547,0.707106781186547));
#442=DIRECTION('',(0.0,-1.0,0.0));
#443=DIRECTION('',(6.12323399573677E-17,0.0,-1.0));
#444=FILL_AREA_STYLE_COLOUR('',#506);
#445=VERTEX_POINT('',#507);
#446=VERTEX_POINT('',#508);
#447=LINE('',#509,#510);
#448=VERTEX_POINT('',#511);
#449=CIRCLE('',#512,3.69999999999999);
#450=VERTEX_POINT('',#513);
#451=LINE('',#514,#515);
#452=CIRCLE('',#516,3.69999999999999);
#453=FILL_AREA_STYLE_COLOUR('',#517);
#454=VERTEX_POINT('',#518);
#455=VERTEX_POINT('',#519);
#456=LINE('',#520,#521);
#457=VERTEX_POINT('',#522);
#458=CIRCLE('',#523,3.99999999999997);
#459=VERTEX_POINT('',#524);
#460=LINE('',#525,#526);
#461=CIRCLE('',#527,4.00000000000009);
#462=FILL_AREA_STYLE_COLOUR('',#528);
#463=VERTEX_POINT('',#529);
#464=LINE('',#530,#531);
#465=VERTEX_POINT('',#532);
#466=CIRCLE('',#533,3.20000000000002);
#467=LINE('',#534,#535);
#468=FILL_AREA_STYLE_COLOUR('',#536);
#469=CIRCLE('',#537,3.20000000000002);
#470=FILL_AREA_STYLE_COLOUR('',#538);
#471=CIRCLE('',#539,3.99999999999997);
#472=FILL_AREA_STYLE_COLOUR('',#540);
#473=CIRCLE('',#541,4.00000000000009);
#474=FILL_AREA_STYLE_COLOUR('',#542);
#475=CIRCLE('',#543,3.69999999999999);
#476=FILL_AREA_STYLE_COLOUR('',#544);
#477=CIRCLE('',#545,3.69999999999999);
#478=FILL_AREA_STYLE_COLOUR('',#546);
#479=DIRECTION('',(0.0,1.0,0.0));
#480=DIRECTION('',(-4.32978028117736E-17,0.707106781186573,0.707106781186522));
#481=DIRECTION('',(-6.12323399573677E-17,0.0,1.0));
#482=DIRECTION('',(0.0,-1.0,0.0));
#483=DIRECTION('',(6.12323399573677E-17,3.5527136788005E-16,-1.0));
#484=FILL_AREA_STYLE_COLOUR('',#547);
#485=VERTEX_POINT('',#548);
#486=VERTEX_POINT('',#549);
#487=LINE('',#550,#551);
#488=VERTEX_POINT('',#552);
#489=CIRCLE('',#553,4.00000000000006);
#490=VERTEX_POINT('',#554);
#491=LINE('',#555,#556);
#492=CIRCLE('',#557,3.60000000000005);
#493=FILL_AREA_STYLE_COLOUR('',#558);
#494=VERTEX_POINT('',#559);
#495=LINE('',#560,#561);
#496=VERTEX_POINT('',#562);
#497=CIRCLE('',#563,4.00000000000006);
#498=LINE('',#564,#565);
#499=FILL_AREA_STYLE_COLOUR('',#566);
#500=CIRCLE('',#567,4.00000000000006);
#501=FILL_AREA_STYLE_COLOUR('',#568);
#502=CIRCLE('',#569,4.00000000000006);
#503=FILL_AREA_STYLE_COLOUR('',#570);
#504=CIRCLE('',#571,3.60000000000005);
#505=FILL_AREA_STYLE_COLOUR('',#572);
#506=COLOUR_RGB('',0.498039215803146,0.498039215803146,0.498039215803146);
#507=CARTESIAN_POINT('',(0.0,3.69999999999999,0.0));
#508=CARTESIAN_POINT('',(3.06161699786838E-16,3.69999999999999,-5.0));
#509=CARTESIAN_POINT('',(-3.000384657911E-16,3.69999999999999,-2.5));
#510=VECTOR('',#573,1.0);
#511=CARTESIAN_POINT('',(4.53119315684519E-16,-3.69999999999999,2.77455559792443E-32));
#512=AXIS2_PLACEMENT_3D('',#574,#575,#576);
#513=CARTESIAN_POINT('',(7.59281015471357E-16,-3.69999999999999,-5.0));
#514=CARTESIAN_POINT('',(6.06200165577938E-16,-3.69999999999999,-2.5));
#515=VECTOR('',#577,1.0);
#516=AXIS2_PLACEMENT_3D('',#578,#579,#580);
#517=COLOUR_RGB('',0.498039215803146,0.498039215803146,0.498039215803146);
#518=CARTESIAN_POINT('',(-2.15537836649934E-15,3.99999999999997,35.2));
#519=CARTESIAN_POINT('',(0.0,4.00000000000009,0.0));
#520=CARTESIAN_POINT('',(-1.56754790290862E-15,4.00000000000003,17.6));
#521=VECTOR('',#581,1.0);
#522=CARTESIAN_POINT('',(-1.66551964684041E-15,-3.99999999999997,35.2));
#523=AXIS2_PLACEMENT_3D('',#582,#583,#584);
#524=CARTESIAN_POINT('',(4.89858719658952E-16,-4.00000000000009,2.99951956532378E-32));
#525=CARTESIAN_POINT('',(-5.87830463590728E-16,-4.00000000000003,17.6));
#526=VECTOR('',#585,1.0);
#527=AXIS2_PLACEMENT_3D('',#586,#587,#588);
#528=COLOUR_RGB('',0.498039215803146,0.498039215803146,0.498039215803146);
#529=CARTESIAN_POINT('',(-2.20436423846524E-15,3.20000000000002,36.0));
#530=CARTESIAN_POINT('',(-2.62074415017534E-15,3.59999999999999,35.6));
#531=VECTOR('',#589,1.0);
#532=CARTESIAN_POINT('',(-1.81247726273808E-15,-3.20000000000002,36.0));
#533=AXIS2_PLACEMENT_3D('',#590,#591,#592);
#534=CARTESIAN_POINT('',(-1.73899845478924E-15,-3.59999999999999,35.6));
#535=VECTOR('',#593,1.0);
#536=COLOUR_RGB('',0.498039215803146,0.498039215803146,0.498039215803146);
#537=AXIS2_PLACEMENT_3D('',#594,#595,#596);
#538=COLOUR_RGB('',0.498039215803146,0.498039215803146,0.498039215803146);
#539=AXIS2_PLACEMENT_3D('',#597,#598,#599);
#540=COLOUR_RGB('',0.498039215803146,0.498039215803146,0.498039215803146);
#541=AXIS2_PLACEMENT_3D('',#600,#601,#602);
#542=COLOUR_RGB('',0.498039215803146,0.498039215803146,0.498039215803146);
#543=AXIS2_PLACEMENT_3D('',#603,#604,#605);
#544=COLOUR_RGB('',0.498039215803146,0.498039215803146,0.498039215803146);
#545=AXIS2_PLACEMENT_3D('',#606,#607,#608);
#546=COLOUR_RGB('',0.498039215803146,0.498039215803146,0.498039215803146);
#547=COLOUR_RGB('',0.800000011920929,0.800000011920929,0.800000011920929);
#548=CARTESIAN_POINT('',(2.7309623620986E-15,4.00000000000006,-44.6));
#549=CARTESIAN_POINT('',(2.75545529808154E-15,3.60000000000005,-45.0));
#550=CARTESIAN_POINT('',(2.27784304641407E-15,3.80000000000005,-44.8));
#551=VECTOR('',#609,1.0);
#552=CARTESIAN_POINT('',(3.22082108175755E-15,-4.00000000000006,-44.6));
#553=AXIS2_PLACEMENT_3D('',#610,#611,#612);
#554=CARTESIAN_POINT('',(3.1963281457746E-15,-3.60000000000005,-45.0));
#555=CARTESIAN_POINT('',(3.20857461376607E-15,-3.80000000000005,-44.8));
#556=VECTOR('',#613,1.0);
#557=AXIS2_PLACEMENT_3D('',#614,#615,#616);
#558=COLOUR_RGB('',0.800000011920929,0.800000011920929,0.800000011920929);
#559=CARTESIAN_POINT('',(3.06161699786838E-16,4.00000000000006,-5.0));
#560=CARTESIAN_POINT('',(1.02870331128377E-15,4.00000000000006,-24.8));
#561=VECTOR('',#617,1.0);
#562=CARTESIAN_POINT('',(7.96020419445786E-16,-4.00000000000006,-5.0));
#563=AXIS2_PLACEMENT_3D('',#618,#619,#620);
#564=CARTESIAN_POINT('',(2.00842075060167E-15,-4.00000000000006,-24.8));
#565=VECTOR('',#621,1.0);
#566=COLOUR_RGB('',0.800000011920929,0.800000011920929,0.800000011920929);
#567=AXIS2_PLACEMENT_3D('',#622,#623,#624);
#568=COLOUR_RGB('',0.800000011920929,0.800000011920929,0.800000011920929);
#569=AXIS2_PLACEMENT_3D('',#625,#626,#627);
#570=COLOUR_RGB('',0.800000011920929,0.800000011920929,0.800000011920929);
#571=AXIS2_PLACEMENT_3D('',#628,#629,#630);
#572=COLOUR_RGB('',0.800000011920929,0.800000011920929,0.800000011920929);
#573=DIRECTION('',(6.12323399573677E-17,0.0,-1.0));
#574=CARTESIAN_POINT('',(0.0,0.0,0.0));
#575=DIRECTION('',(6.12323399573677E-17,0.0,-1.0));
#576=DIRECTION('',(0.0,1.0,0.0));
#577=DIRECTION('',(-6.12323399573677E-17,-0.0,1.0));
#578=CARTESIAN_POINT('',(3.06161699786838E-16,0.0,-5.0));
#579=DIRECTION('',(6.12323399573677E-17,0.0,-1.0));
#580=DIRECTION('',(0.0,1.0,0.0));
#581=DIRECTION('',(6.12323399573677E-17,0.0,-1.0));
#582=CARTESIAN_POINT('',(-2.15537836649934E-15,0.0,35.2));
#583=DIRECTION('',(6.12323399573677E-17,0.0,-1.0));
#584=DIRECTION('',(0.0,1.0,0.0));
#585=DIRECTION('',(-6.12323399573677E-17,-0.0,1.0));
#586=CARTESIAN_POINT('',(0.0,0.0,0.0));
#587=DIRECTION('',(6.12323399573677E-17,0.0,-1.0));
#588=DIRECTION('',(0.0,1.0,0.0));
#589=DIRECTION('',(-4.32978028117747E-17,0.707106781186547,-0.707106781186548));
#590=CARTESIAN_POINT('',(-2.20436423846524E-15,0.0,36.0));
#591=DIRECTION('',(6.12323399573677E-17,0.0,-1.0));
#592=DIRECTION('',(0.0,1.0,0.0));
#593=DIRECTION('',(-1.29893408435324E-16,0.707106781186547,0.707106781186548));
#594=CARTESIAN_POINT('',(-2.20436423846524E-15,0.0,36.0));
#595=DIRECTION('',(6.12323399573677E-17,0.0,-1.0));
#596=DIRECTION('',(0.0,1.0,0.0));
#597=CARTESIAN_POINT('',(-2.15537836649934E-15,0.0,35.2));
#598=DIRECTION('',(6.12323399573677E-17,0.0,-1.0));
#599=DIRECTION('',(0.0,1.0,0.0));
#600=CARTESIAN_POINT('',(0.0,0.0,0.0));
#601=DIRECTION('',(6.12323399573677E-17,0.0,-1.0));
#602=DIRECTION('',(0.0,1.0,0.0));
#603=CARTESIAN_POINT('',(0.0,0.0,0.0));
#604=DIRECTION('',(6.12323399573677E-17,0.0,-1.0));
#605=DIRECTION('',(0.0,1.0,0.0));
#606=CARTESIAN_POINT('',(3.06161699786838E-16,0.0,-5.0));
#607=DIRECTION('',(6.12323399573677E-17,0.0,-1.0));
#608=DIRECTION('',(0.0,1.0,0.0));
#609=DIRECTION('',(1.29893408435326E-16,-0.707106781186573,-0.707106781186522));
#610=CARTESIAN_POINT('',(2.7309623620986E-15,0.0,-44.6));
#611=DIRECTION('',(6.12323399573677E-17,0.0,-1.0));
#612=DIRECTION('',(0.0,1.0,0.0));
#613=DIRECTION('',(4.32978028117793E-17,-0.707106781186573,0.707106781186522));
#614=CARTESIAN_POINT('',(2.75545529808154E-15,0.0,-45.0));
#615=DIRECTION('',(6.12323399573677E-17,0.0,-1.0));
#616=DIRECTION('',(0.0,1.0,0.0));
#617=DIRECTION('',(6.12323399573677E-17,0.0,-1.0));
#618=CARTESIAN_POINT('',(3.06161699786838E-16,0.0,-5.0));
#619=DIRECTION('',(6.12323399573677E-17,0.0,-1.0));
#620=DIRECTION('',(0.0,1.0,0.0));
#621=DIRECTION('',(-6.12323399573677E-17,-0.0,1.0));
#622=CARTESIAN_POINT('',(3.06161699786838E-16,0.0,-5.0));
#623=DIRECTION('',(6.12323399573677E-17,0.0,-1.0));
#624=DIRECTION('',(0.0,1.0,0.0));
#625=CARTESIAN_POINT('',(2.7309623620986E-15,0.0,-44.6));
#626=DIRECTION('',(6.12323399573677E-17,0.0,-1.0));
#627=DIRECTION('',(0.0,1.0,0.0));
#628=CARTESIAN_POINT('',(2.75545529808154E-15,0.0,-45.0));
#629=DIRECTION('',(6.12323399573677E-17,0.0,-1.0));
#630=DIRECTION('',(0.0,1.0,0.0));
#631=DIRECTION('',(0.0,0.0,1.0));
#632=DIRECTION('',(1.0,0.0,0.0));
#633=CARTESIAN_POINT('',(0.0,0.0,36.000000));
#634=AXIS2_PLACEMENT_3D('PCS', #633,#631,#632);
#635=CARTESIAN_POINT('',(0.0,0.0,0.000000));
#636=AXIS2_PLACEMENT_3D('MCS', #635,#631,#632);
#637=CARTESIAN_POINT('',(0.0,0.0,-45.000000));
#638=AXIS2_PLACEMENT_3D('CIP', #637,#631,#632);
ENDSEC;
END-ISO-10303-21;
