ISO-10303-21;
HEADER;
FILE_DESCRIPTION(('STEP AP214'),'1');
FILE_NAME('607734246-000-00-E43.stp','2022-06-27T11:18:57',(' '),(' '),'Spatial InterOp 3D',' ',' ');
FILE_SCHEMA(('AUTOMOTIVE_DESIGN { 1 0 10303 214 1 1 1 1 }'));
ENDSEC;
DATA;
#1=MECHANICAL_DESIGN_GEOMETRIC_PRESENTATION_REPRESENTATION(' ',(#12,#13,#14,#15,#16,#17,#18,#19,#20,#21,#22,#23,#24,#25,#26,#27,#28,#29,#30,#31),#8);
#2=PRODUCT_DEFINITION_CONTEXT('',#32,'design');
#3=APPLICATION_PROTOCOL_DEFINITION('INTERNATIONAL STANDARD','automotive_design',1994,#32);
#4=PRODUCT_CATEGORY_RELATIONSHIP('NONE','NONE',#33,#34);
#5=SHAPE_DEFINITION_REPRESENTATION(#35,#36);
#6=SHAPE_DEFINITION_REPRESENTATION(#35,#37);
#7=SHAPE_DEFINITION_REPRESENTATION(#35,#38);
#8= (GEOMETRIC_REPRESENTATION_CONTEXT(3)GLOBAL_UNCERTAINTY_ASSIGNED_CONTEXT((#41))GLOBAL_UNIT_ASSIGNED_CONTEXT((#43,#44,#45))REPRESENTATION_CONTEXT('NONE','WORKSPACE'));
#12=STYLED_ITEM('',(#47),#48);
#13=STYLED_ITEM('',(#49),#50);
#14=STYLED_ITEM('',(#51),#52);
#15=STYLED_ITEM('',(#53),#54);
#16=STYLED_ITEM('',(#55),#56);
#17=STYLED_ITEM('',(#57),#58);
#18=STYLED_ITEM('',(#59),#60);
#19=STYLED_ITEM('',(#61),#62);
#20=STYLED_ITEM('',(#63),#64);
#21=STYLED_ITEM('',(#65),#66);
#22=STYLED_ITEM('',(#67),#68);
#23=STYLED_ITEM('',(#69),#70);
#24=STYLED_ITEM('',(#71),#72);
#25=STYLED_ITEM('',(#73),#74);
#26=STYLED_ITEM('',(#75),#76);
#27=STYLED_ITEM('',(#77),#78);
#28=STYLED_ITEM('',(#79),#80);
#29=STYLED_ITEM('',(#81),#82);
#30=STYLED_ITEM('',(#83),#84);
#31=STYLED_ITEM('',(#85),#86);
#32=APPLICATION_CONTEXT(' ');
#33=PRODUCT_CATEGORY('part','NONE');
#34=PRODUCT_RELATED_PRODUCT_CATEGORY('detail',' ',(#87));
#35=PRODUCT_DEFINITION_SHAPE('NONE','NONE',#88);
#36=ADVANCED_BREP_SHAPE_REPRESENTATION('1',(#89,#90),#8);
#37=ADVANCED_BREP_SHAPE_REPRESENTATION('2',(#91,#92),#8);
#38=GEOMETRICALLY_BOUNDED_SURFACE_SHAPE_REPRESENTATION('3',(#93,#94),#8);
#41=UNCERTAINTY_MEASURE_WITH_UNIT(LENGTH_MEASURE(1.0E-06),#43,'','');
#43= (CONVERSION_BASED_UNIT('MILLIMETRE',#97)LENGTH_UNIT()NAMED_UNIT(#100));
#44= (NAMED_UNIT(#102)PLANE_ANGLE_UNIT()SI_UNIT($,.RADIAN.));
#45= (NAMED_UNIT(#102)SOLID_ANGLE_UNIT()SI_UNIT($,.STERADIAN.));
#47=PRESENTATION_STYLE_ASSIGNMENT((#108));
#48=COMPOSITE_CURVE('',(#109),.U.);
#49=PRESENTATION_STYLE_ASSIGNMENT((#110));
#50=COMPOSITE_CURVE('',(#111,#112,#113,#114,#115,#116,#117,#118),.U.);
#51=PRESENTATION_STYLE_ASSIGNMENT((#119));
#52=ADVANCED_FACE('',(#120),#121,.T.);
#53=PRESENTATION_STYLE_ASSIGNMENT((#122));
#54=ADVANCED_FACE('',(#123),#124,.T.);
#55=PRESENTATION_STYLE_ASSIGNMENT((#125));
#56=ADVANCED_FACE('',(#126),#127,.T.);
#57=PRESENTATION_STYLE_ASSIGNMENT((#128));
#58=ADVANCED_FACE('',(#129),#130,.T.);
#59=PRESENTATION_STYLE_ASSIGNMENT((#131));
#60=ADVANCED_FACE('',(#132),#133,.T.);
#61=PRESENTATION_STYLE_ASSIGNMENT((#134));
#62=ADVANCED_FACE('',(#135),#136,.T.);
#63=PRESENTATION_STYLE_ASSIGNMENT((#137));
#64=ADVANCED_FACE('',(#138),#139,.T.);
#65=PRESENTATION_STYLE_ASSIGNMENT((#140));
#66=ADVANCED_FACE('',(#141),#142,.T.);
#67=PRESENTATION_STYLE_ASSIGNMENT((#143));
#68=ADVANCED_FACE('',(#144),#145,.T.);
#69=PRESENTATION_STYLE_ASSIGNMENT((#146));
#70=ADVANCED_FACE('',(#147),#148,.T.);
#71=PRESENTATION_STYLE_ASSIGNMENT((#149));
#72=ADVANCED_FACE('',(#150),#151,.T.);
#73=PRESENTATION_STYLE_ASSIGNMENT((#152));
#74=ADVANCED_FACE('',(#153),#154,.T.);
#75=PRESENTATION_STYLE_ASSIGNMENT((#155));
#76=COMPOSITE_CURVE('',(#156,#157,#158,#159),.U.);
#77=PRESENTATION_STYLE_ASSIGNMENT((#160));
#78=ADVANCED_FACE('',(#161),#162,.T.);
#79=PRESENTATION_STYLE_ASSIGNMENT((#163));
#80=ADVANCED_FACE('',(#164),#165,.T.);
#81=PRESENTATION_STYLE_ASSIGNMENT((#166));
#82=ADVANCED_FACE('',(#167),#168,.T.);
#83=PRESENTATION_STYLE_ASSIGNMENT((#169));
#84=ADVANCED_FACE('',(#170),#171,.T.);
#85=PRESENTATION_STYLE_ASSIGNMENT((#172));
#86=ADVANCED_FACE('',(#173),#174,.T.);
#87=PRODUCT('1','','PART--DESC',(#175));
#88=PRODUCT_DEFINITION('','NONE',#176,#2);
#89=MANIFOLD_SOLID_BREP('1',#177);
#90=AXIS2_PLACEMENT_3D('',#178,#179,#180);
#91=MANIFOLD_SOLID_BREP('2',#181);
#92=AXIS2_PLACEMENT_3D('',#182,#183,#184);
#93=GEOMETRIC_SET('3',(#48,#50,#76));
#94=AXIS2_PLACEMENT_3D('',#185,#186,#187);
#97=LENGTH_MEASURE_WITH_UNIT(LENGTH_MEASURE(1.0),#188);
#100=DIMENSIONAL_EXPONENTS(1.0,0.0,0.0,0.0,0.0,0.0,0.0);
#102=DIMENSIONAL_EXPONENTS(0.0,0.0,0.0,0.0,0.0,0.0,0.0);
#108=CURVE_STYLE('',#189,POSITIVE_LENGTH_MEASURE(1.0E-06),#190);
#109=COMPOSITE_CURVE_SEGMENT(.CONTINUOUS.,.T.,#191);
#110=CURVE_STYLE('',#192,POSITIVE_LENGTH_MEASURE(1.0E-06),#193);
#111=COMPOSITE_CURVE_SEGMENT(.CONTINUOUS.,.T.,#194);
#112=COMPOSITE_CURVE_SEGMENT(.CONTINUOUS.,.T.,#195);
#113=COMPOSITE_CURVE_SEGMENT(.CONTINUOUS.,.T.,#196);
#114=COMPOSITE_CURVE_SEGMENT(.CONTINUOUS.,.T.,#197);
#115=COMPOSITE_CURVE_SEGMENT(.CONTINUOUS.,.T.,#198);
#116=COMPOSITE_CURVE_SEGMENT(.CONTINUOUS.,.T.,#199);
#117=COMPOSITE_CURVE_SEGMENT(.CONTINUOUS.,.T.,#200);
#118=COMPOSITE_CURVE_SEGMENT(.CONTINUOUS.,.T.,#201);
#119=SURFACE_STYLE_USAGE(.BOTH.,#202);
#120=FACE_OUTER_BOUND('',#203,.T.);
#121=CONICAL_SURFACE('',#204,2.44999999999986,0.523598775598503);
#122=SURFACE_STYLE_USAGE(.BOTH.,#205);
#123=FACE_OUTER_BOUND('',#206,.T.);
#124=CYLINDRICAL_SURFACE('',#207,2.40000000000001);
#125=SURFACE_STYLE_USAGE(.BOTH.,#208);
#126=FACE_OUTER_BOUND('',#209,.T.);
#127=CONICAL_SURFACE('',#210,2.45,0.785398163395601);
#128=SURFACE_STYLE_USAGE(.BOTH.,#211);
#129=FACE_OUTER_BOUND('',#212,.T.);
#130=CYLINDRICAL_SURFACE('',#213,2.5);
#131=SURFACE_STYLE_USAGE(.BOTH.,#214);
#132=FACE_OUTER_BOUND('',#215,.T.);
#133=CONICAL_SURFACE('',#216,2.42783121635129,0.523598775598318);
#134=SURFACE_STYLE_USAGE(.BOTH.,#217);
#135=FACE_OUTER_BOUND('',#218,.T.);
#136=PLANE('',#219);
#137=SURFACE_STYLE_USAGE(.BOTH.,#220);
#138=FACE_OUTER_BOUND('',#221,.T.);
#139=CONICAL_SURFACE('',#222,2.42783121635129,0.523598775598318);
#140=SURFACE_STYLE_USAGE(.BOTH.,#223);
#141=FACE_OUTER_BOUND('',#224,.T.);
#142=CYLINDRICAL_SURFACE('',#225,2.5);
#143=SURFACE_STYLE_USAGE(.BOTH.,#226);
#144=FACE_OUTER_BOUND('',#227,.T.);
#145=CONICAL_SURFACE('',#228,2.45,0.785398163395601);
#146=SURFACE_STYLE_USAGE(.BOTH.,#229);
#147=FACE_OUTER_BOUND('',#230,.T.);
#148=CYLINDRICAL_SURFACE('',#231,2.40000000000001);
#149=SURFACE_STYLE_USAGE(.BOTH.,#232);
#150=FACE_OUTER_BOUND('',#233,.T.);
#151=CONICAL_SURFACE('',#234,2.44999999999986,0.523598775598503);
#152=SURFACE_STYLE_USAGE(.BOTH.,#235);
#153=FACE_OUTER_BOUND('',#236,.T.);
#154=PLANE('',#237);
#155=CURVE_STYLE('',#238,POSITIVE_LENGTH_MEASURE(1.0E-06),#239);
#156=COMPOSITE_CURVE_SEGMENT(.CONTINUOUS.,.T.,#240);
#157=COMPOSITE_CURVE_SEGMENT(.CONTINUOUS.,.T.,#241);
#158=COMPOSITE_CURVE_SEGMENT(.CONTINUOUS.,.T.,#242);
#159=COMPOSITE_CURVE_SEGMENT(.CONTINUOUS.,.T.,#243);
#160=SURFACE_STYLE_USAGE(.BOTH.,#244);
#161=FACE_OUTER_BOUND('',#245,.T.);
#162=CONICAL_SURFACE('',#246,1.25,1.17809724509659);
#163=SURFACE_STYLE_USAGE(.BOTH.,#247);
#164=FACE_OUTER_BOUND('',#248,.T.);
#165=CYLINDRICAL_SURFACE('',#249,2.49999999999986);
#166=SURFACE_STYLE_USAGE(.BOTH.,#250);
#167=FACE_OUTER_BOUND('',#251,.T.);
#168=PLANE('',#252);
#169=SURFACE_STYLE_USAGE(.BOTH.,#253);
#170=FACE_OUTER_BOUND('',#254,.T.);
#171=CYLINDRICAL_SURFACE('',#255,2.49999999999986);
#172=SURFACE_STYLE_USAGE(.BOTH.,#256);
#173=FACE_OUTER_BOUND('',#257,.T.);
#174=CONICAL_SURFACE('',#258,1.25,1.17809724509659);
#175=PRODUCT_CONTEXT('',#32,'mechanical');
#176=PRODUCT_DEFINITION_FORMATION_WITH_SPECIFIED_SOURCE(' ','NONE',#87,.NOT_KNOWN.);
#177=CLOSED_SHELL('',(#52,#54,#56,#58,#60,#62,#64,#66,#68,#70,#72,#74));
#178=CARTESIAN_POINT('',(0.0,0.0,0.0));
#179=DIRECTION('',(0.0,0.0,1.0));
#180=DIRECTION('',(1.0,0.0,0.0));
#181=CLOSED_SHELL('',(#78,#80,#82,#84,#86));
#182=CARTESIAN_POINT('',(0.0,0.0,0.0));
#183=DIRECTION('',(0.0,0.0,1.0));
#184=DIRECTION('',(1.0,0.0,0.0));
#185=CARTESIAN_POINT('',(0.0,0.0,0.0));
#186=DIRECTION('',(0.0,0.0,1.0));
#187=DIRECTION('',(1.0,0.0,0.0));
#188= (NAMED_UNIT(#100)LENGTH_UNIT()SI_UNIT(.MILLI.,.METRE.));
#189=DRAUGHTING_PRE_DEFINED_CURVE_FONT('continuous');
#190=COLOUR_RGB('',0.0,1.0,0.0);
#191=TRIMMED_CURVE('',#260,(PARAMETER_VALUE(0.0)),(PARAMETER_VALUE(2.5)),.T.,.UNSPECIFIED.);
#192=DRAUGHTING_PRE_DEFINED_CURVE_FONT('continuous');
#193=COLOUR_RGB('',0.498039215803146,0.498039215803146,0.498039215803146);
#194=TRIMMED_CURVE('',#261,(PARAMETER_VALUE(0.0)),(PARAMETER_VALUE(2.49999999999972)),.T.,.UNSPECIFIED.);
#195=TRIMMED_CURVE('',#262,(PARAMETER_VALUE(0.0)),(PARAMETER_VALUE(0.19999999999935)),.T.,.UNSPECIFIED.);
#196=TRIMMED_CURVE('',#263,(PARAMETER_VALUE(0.0)),(PARAMETER_VALUE(110.726794919243)),.T.,.UNSPECIFIED.);
#197=TRIMMED_CURVE('',#264,(PARAMETER_VALUE(0.0)),(PARAMETER_VALUE(0.141421356237563)),.T.,.UNSPECIFIED.);
#198=TRIMMED_CURVE('',#265,(PARAMETER_VALUE(0.0)),(PARAMETER_VALUE(33.75)),.T.,.UNSPECIFIED.);
#199=TRIMMED_CURVE('',#266,(PARAMETER_VALUE(0.0)),(PARAMETER_VALUE(0.288675134594816)),.T.,.UNSPECIFIED.);
#200=TRIMMED_CURVE('',#267,(PARAMETER_VALUE(0.0)),(PARAMETER_VALUE(2.35566243270259)),.T.,.UNSPECIFIED.);
#201=TRIMMED_CURVE('',#268,(PARAMETER_VALUE(0.0)),(PARAMETER_VALUE(145.0)),.T.,.UNSPECIFIED.);
#202=SURFACE_SIDE_STYLE('',(#269));
#203=EDGE_LOOP('',(#270,#271,#272,#273));
#204=AXIS2_PLACEMENT_3D('',#274,#275,#276);
#205=SURFACE_SIDE_STYLE('',(#277));
#206=EDGE_LOOP('',(#278,#279,#280,#281));
#207=AXIS2_PLACEMENT_3D('',#282,#283,#284);
#208=SURFACE_SIDE_STYLE('',(#285));
#209=EDGE_LOOP('',(#286,#287,#288,#289));
#210=AXIS2_PLACEMENT_3D('',#290,#291,#292);
#211=SURFACE_SIDE_STYLE('',(#293));
#212=EDGE_LOOP('',(#294,#295,#296,#297));
#213=AXIS2_PLACEMENT_3D('',#298,#299,#300);
#214=SURFACE_SIDE_STYLE('',(#301));
#215=EDGE_LOOP('',(#302,#303,#304,#305));
#216=AXIS2_PLACEMENT_3D('',#306,#307,#308);
#217=SURFACE_SIDE_STYLE('',(#309));
#218=EDGE_LOOP('',(#310,#311));
#219=AXIS2_PLACEMENT_3D('',#312,#313,#314);
#220=SURFACE_SIDE_STYLE('',(#315));
#221=EDGE_LOOP('',(#316,#317,#318,#319));
#222=AXIS2_PLACEMENT_3D('',#320,#321,#322);
#223=SURFACE_SIDE_STYLE('',(#323));
#224=EDGE_LOOP('',(#324,#325,#326,#327));
#225=AXIS2_PLACEMENT_3D('',#328,#329,#330);
#226=SURFACE_SIDE_STYLE('',(#331));
#227=EDGE_LOOP('',(#332,#333,#334,#335));
#228=AXIS2_PLACEMENT_3D('',#336,#337,#338);
#229=SURFACE_SIDE_STYLE('',(#339));
#230=EDGE_LOOP('',(#340,#341,#342,#343));
#231=AXIS2_PLACEMENT_3D('',#344,#345,#346);
#232=SURFACE_SIDE_STYLE('',(#347));
#233=EDGE_LOOP('',(#348,#349,#350,#351));
#234=AXIS2_PLACEMENT_3D('',#352,#353,#354);
#235=SURFACE_SIDE_STYLE('',(#355));
#236=EDGE_LOOP('',(#356,#357));
#237=AXIS2_PLACEMENT_3D('',#358,#359,#360);
#238=DRAUGHTING_PRE_DEFINED_CURVE_FONT('continuous');
#239=COLOUR_RGB('',0.0,0.0,1.0);
#240=TRIMMED_CURVE('',#361,(PARAMETER_VALUE(0.0)),(PARAMETER_VALUE(2.70598050073052)),.T.,.UNSPECIFIED.);
#241=TRIMMED_CURVE('',#362,(PARAMETER_VALUE(0.0)),(PARAMETER_VALUE(23.9644660940685)),.T.,.UNSPECIFIED.);
#242=TRIMMED_CURVE('',#363,(PARAMETER_VALUE(0.0)),(PARAMETER_VALUE(2.49999999999972)),.T.,.UNSPECIFIED.);
#243=TRIMMED_CURVE('',#364,(PARAMETER_VALUE(0.0)),(PARAMETER_VALUE(25.0)),.T.,.UNSPECIFIED.);
#244=SURFACE_SIDE_STYLE('',(#365));
#245=EDGE_LOOP('',(#366,#367,#368));
#246=AXIS2_PLACEMENT_3D('',#369,#370,#371);
#247=SURFACE_SIDE_STYLE('',(#372));
#248=EDGE_LOOP('',(#373,#374,#375,#376));
#249=AXIS2_PLACEMENT_3D('',#377,#378,#379);
#250=SURFACE_SIDE_STYLE('',(#380));
#251=EDGE_LOOP('',(#381,#382));
#252=AXIS2_PLACEMENT_3D('',#383,#384,#385);
#253=SURFACE_SIDE_STYLE('',(#386));
#254=EDGE_LOOP('',(#387,#388,#389,#390));
#255=AXIS2_PLACEMENT_3D('',#391,#392,#393);
#256=SURFACE_SIDE_STYLE('',(#394));
#257=EDGE_LOOP('',(#395,#396,#397));
#258=AXIS2_PLACEMENT_3D('',#398,#399,#400);
#260=LINE('',#401,#402);
#261=LINE('',#403,#404);
#262=LINE('',#405,#406);
#263=LINE('',#407,#408);
#264=LINE('',#409,#410);
#265=LINE('',#411,#412);
#266=LINE('',#413,#414);
#267=LINE('',#415,#416);
#268=LINE('',#417,#418);
#269=SURFACE_STYLE_FILL_AREA(#419);
#270=ORIENTED_EDGE('',*,*,#420,.F.);
#271=ORIENTED_EDGE('',*,*,#421,.T.);
#272=ORIENTED_EDGE('',*,*,#422,.F.);
#273=ORIENTED_EDGE('',*,*,#423,.F.);
#274=CARTESIAN_POINT('',(144.913397459621,0.0,0.0));
#275=DIRECTION('',(1.0,-0.0,-0.0));
#276=DIRECTION('',(0.0,1.0,0.0));
#277=SURFACE_STYLE_FILL_AREA(#424);
#278=ORIENTED_EDGE('',*,*,#425,.F.);
#279=ORIENTED_EDGE('',*,*,#426,.T.);
#280=ORIENTED_EDGE('',*,*,#427,.F.);
#281=ORIENTED_EDGE('',*,*,#421,.F.);
#282=CARTESIAN_POINT('',(89.4633974596218,0.0,0.0));
#283=DIRECTION('',(1.0,0.0,0.0));
#284=DIRECTION('',(0.0,1.0,0.0));
#285=SURFACE_STYLE_FILL_AREA(#428);
#286=ORIENTED_EDGE('',*,*,#429,.F.);
#287=ORIENTED_EDGE('',*,*,#430,.T.);
#288=ORIENTED_EDGE('',*,*,#431,.F.);
#289=ORIENTED_EDGE('',*,*,#426,.F.);
#290=CARTESIAN_POINT('',(34.0500000000002,0.0,0.0));
#291=DIRECTION('',(-1.0,-0.0,-0.0));
#292=DIRECTION('',(0.0,1.0,0.0));
#293=SURFACE_STYLE_FILL_AREA(#432);
#294=ORIENTED_EDGE('',*,*,#433,.F.);
#295=ORIENTED_EDGE('',*,*,#434,.T.);
#296=ORIENTED_EDGE('',*,*,#435,.F.);
#297=ORIENTED_EDGE('',*,*,#430,.F.);
#298=CARTESIAN_POINT('',(17.125,0.0,0.0));
#299=DIRECTION('',(1.0,0.0,0.0));
#300=DIRECTION('',(0.0,1.0,0.0));
#301=SURFACE_STYLE_FILL_AREA(#436);
#302=ORIENTED_EDGE('',*,*,#437,.F.);
#303=ORIENTED_EDGE('',*,*,#438,.T.);
#304=ORIENTED_EDGE('',*,*,#439,.F.);
#305=ORIENTED_EDGE('',*,*,#434,.F.);
#306=CARTESIAN_POINT('',(0.125,0.0,0.0));
#307=DIRECTION('',(1.0,-0.0,-0.0));
#308=DIRECTION('',(0.0,1.0,0.0));
#309=SURFACE_STYLE_FILL_AREA(#440);
#310=ORIENTED_EDGE('',*,*,#438,.F.);
#311=ORIENTED_EDGE('',*,*,#441,.F.);
#312=CARTESIAN_POINT('',(0.0,1.17783121635129,0.0));
#313=DIRECTION('',(-1.0,0.0,0.0));
#314=DIRECTION('',(0.0,-1.0,0.0));
#315=SURFACE_STYLE_FILL_AREA(#442);
#316=ORIENTED_EDGE('',*,*,#437,.T.);
#317=ORIENTED_EDGE('',*,*,#443,.F.);
#318=ORIENTED_EDGE('',*,*,#439,.T.);
#319=ORIENTED_EDGE('',*,*,#441,.T.);
#320=CARTESIAN_POINT('',(0.125,0.0,0.0));
#321=DIRECTION('',(1.0,-0.0,-0.0));
#322=DIRECTION('',(0.0,1.0,0.0));
#323=SURFACE_STYLE_FILL_AREA(#444);
#324=ORIENTED_EDGE('',*,*,#433,.T.);
#325=ORIENTED_EDGE('',*,*,#445,.F.);
#326=ORIENTED_EDGE('',*,*,#435,.T.);
#327=ORIENTED_EDGE('',*,*,#443,.T.);
#328=CARTESIAN_POINT('',(17.125,0.0,0.0));
#329=DIRECTION('',(1.0,0.0,0.0));
#330=DIRECTION('',(0.0,1.0,0.0));
#331=SURFACE_STYLE_FILL_AREA(#446);
#332=ORIENTED_EDGE('',*,*,#429,.T.);
#333=ORIENTED_EDGE('',*,*,#447,.F.);
#334=ORIENTED_EDGE('',*,*,#431,.T.);
#335=ORIENTED_EDGE('',*,*,#445,.T.);
#336=CARTESIAN_POINT('',(34.0500000000002,0.0,0.0));
#337=DIRECTION('',(-1.0,-0.0,-0.0));
#338=DIRECTION('',(0.0,1.0,0.0));
#339=SURFACE_STYLE_FILL_AREA(#448);
#340=ORIENTED_EDGE('',*,*,#425,.T.);
#341=ORIENTED_EDGE('',*,*,#449,.F.);
#342=ORIENTED_EDGE('',*,*,#427,.T.);
#343=ORIENTED_EDGE('',*,*,#447,.T.);
#344=CARTESIAN_POINT('',(89.4633974596218,0.0,0.0));
#345=DIRECTION('',(1.0,0.0,0.0));
#346=DIRECTION('',(0.0,1.0,0.0));
#347=SURFACE_STYLE_FILL_AREA(#450);
#348=ORIENTED_EDGE('',*,*,#420,.T.);
#349=ORIENTED_EDGE('',*,*,#451,.F.);
#350=ORIENTED_EDGE('',*,*,#422,.T.);
#351=ORIENTED_EDGE('',*,*,#449,.T.);
#352=CARTESIAN_POINT('',(144.913397459621,0.0,0.0));
#353=DIRECTION('',(1.0,-0.0,-0.0));
#354=DIRECTION('',(0.0,1.0,0.0));
#355=SURFACE_STYLE_FILL_AREA(#452);
#356=ORIENTED_EDGE('',*,*,#423,.T.);
#357=ORIENTED_EDGE('',*,*,#451,.T.);
#358=CARTESIAN_POINT('',(145.0,1.24999999999986,0.0));
#359=DIRECTION('',(1.0,2.04636307898932E-13,0.0));
#360=DIRECTION('',(-2.04636307898932E-13,1.0,0.0));
#361=LINE('',#453,#454);
#362=LINE('',#455,#456);
#363=LINE('',#457,#458);
#364=LINE('',#459,#460);
#365=SURFACE_STYLE_FILL_AREA(#461);
#366=ORIENTED_EDGE('',*,*,#462,.F.);
#367=ORIENTED_EDGE('',*,*,#463,.F.);
#368=ORIENTED_EDGE('',*,*,#464,.T.);
#369=CARTESIAN_POINT('',(169.482233047034,0.0,0.0));
#370=DIRECTION('',(-1.0,-0.0,-0.0));
#371=DIRECTION('',(0.0,1.0,0.0));
#372=SURFACE_STYLE_FILL_AREA(#465);
#373=ORIENTED_EDGE('',*,*,#466,.F.);
#374=ORIENTED_EDGE('',*,*,#467,.T.);
#375=ORIENTED_EDGE('',*,*,#468,.F.);
#376=ORIENTED_EDGE('',*,*,#464,.F.);
#377=CARTESIAN_POINT('',(156.982233047034,0.0,0.0));
#378=DIRECTION('',(1.0,0.0,0.0));
#379=DIRECTION('',(0.0,1.0,0.0));
#380=SURFACE_STYLE_FILL_AREA(#469);
#381=ORIENTED_EDGE('',*,*,#467,.F.);
#382=ORIENTED_EDGE('',*,*,#470,.F.);
#383=CARTESIAN_POINT('',(145.0,1.24999999999986,0.0));
#384=DIRECTION('',(-1.0,0.0,0.0));
#385=DIRECTION('',(0.0,-1.0,0.0));
#386=SURFACE_STYLE_FILL_AREA(#471);
#387=ORIENTED_EDGE('',*,*,#466,.T.);
#388=ORIENTED_EDGE('',*,*,#472,.F.);
#389=ORIENTED_EDGE('',*,*,#468,.T.);
#390=ORIENTED_EDGE('',*,*,#470,.T.);
#391=CARTESIAN_POINT('',(156.982233047034,0.0,0.0));
#392=DIRECTION('',(1.0,0.0,0.0));
#393=DIRECTION('',(0.0,1.0,0.0));
#394=SURFACE_STYLE_FILL_AREA(#473);
#395=ORIENTED_EDGE('',*,*,#462,.T.);
#396=ORIENTED_EDGE('',*,*,#472,.T.);
#397=ORIENTED_EDGE('',*,*,#463,.T.);
#398=CARTESIAN_POINT('',(169.482233047034,0.0,0.0));
#399=DIRECTION('',(-1.0,-0.0,-0.0));
#400=DIRECTION('',(0.0,1.0,0.0));
#401=CARTESIAN_POINT('',(34.0,2.5,0.0));
#402=VECTOR('',#474,1.0);
#403=CARTESIAN_POINT('',(145.0,0.0,0.0));
#404=VECTOR('',#475,1.0);
#405=CARTESIAN_POINT('',(144.999999999999,2.49999999999972,0.0));
#406=VECTOR('',#476,1.0);
#407=CARTESIAN_POINT('',(144.826794919243,2.40000000000001,0.0));
#408=VECTOR('',#477,1.0);
#409=CARTESIAN_POINT('',(34.1000000000004,2.40000000000001,0.0));
#410=VECTOR('',#478,1.0);
#411=CARTESIAN_POINT('',(34.0,2.5,0.0));
#412=VECTOR('',#479,1.0);
#413=CARTESIAN_POINT('',(0.25,2.5,0.0));
#414=VECTOR('',#480,1.0);
#415=CARTESIAN_POINT('',(0.0,2.35566243270259,0.0));
#416=VECTOR('',#481,1.0);
#417=CARTESIAN_POINT('',(0.0,0.0,0.0));
#418=VECTOR('',#482,1.0);
#419=FILL_AREA_STYLE('',(#483));
#420=EDGE_CURVE('',#484,#485,#486,.T.);
#421=EDGE_CURVE('',#484,#487,#488,.T.);
#422=EDGE_CURVE('',#489,#487,#490,.T.);
#423=EDGE_CURVE('',#485,#489,#491,.T.);
#424=FILL_AREA_STYLE('',(#492));
#425=EDGE_CURVE('',#493,#484,#494,.T.);
#426=EDGE_CURVE('',#493,#495,#496,.T.);
#427=EDGE_CURVE('',#487,#495,#497,.T.);
#428=FILL_AREA_STYLE('',(#498));
#429=EDGE_CURVE('',#499,#493,#500,.T.);
#430=EDGE_CURVE('',#499,#501,#502,.T.);
#431=EDGE_CURVE('',#495,#501,#503,.T.);
#432=FILL_AREA_STYLE('',(#504));
#433=EDGE_CURVE('',#505,#499,#506,.T.);
#434=EDGE_CURVE('',#505,#507,#508,.T.);
#435=EDGE_CURVE('',#501,#507,#509,.T.);
#436=FILL_AREA_STYLE('',(#510));
#437=EDGE_CURVE('',#511,#505,#512,.T.);
#438=EDGE_CURVE('',#511,#513,#514,.T.);
#439=EDGE_CURVE('',#507,#513,#515,.T.);
#440=FILL_AREA_STYLE('',(#516));
#441=EDGE_CURVE('',#513,#511,#517,.T.);
#442=FILL_AREA_STYLE('',(#518));
#443=EDGE_CURVE('',#507,#505,#519,.T.);
#444=FILL_AREA_STYLE('',(#520));
#445=EDGE_CURVE('',#501,#499,#521,.T.);
#446=FILL_AREA_STYLE('',(#522));
#447=EDGE_CURVE('',#495,#493,#523,.T.);
#448=FILL_AREA_STYLE('',(#524));
#449=EDGE_CURVE('',#487,#484,#525,.T.);
#450=FILL_AREA_STYLE('',(#526));
#451=EDGE_CURVE('',#489,#485,#527,.T.);
#452=FILL_AREA_STYLE('',(#528));
#453=CARTESIAN_POINT('',(170.0,0.0,0.0));
#454=VECTOR('',#529,1.0);
#455=CARTESIAN_POINT('',(168.964466094068,2.5,0.0));
#456=VECTOR('',#530,1.0);
#457=CARTESIAN_POINT('',(145.0,2.49999999999972,0.0));
#458=VECTOR('',#531,1.0);
#459=CARTESIAN_POINT('',(145.0,0.0,0.0));
#460=VECTOR('',#532,1.0);
#461=FILL_AREA_STYLE('',(#533));
#462=EDGE_CURVE('',#534,#535,#536,.T.);
#463=EDGE_CURVE('',#537,#534,#538,.T.);
#464=EDGE_CURVE('',#537,#535,#539,.T.);
#465=FILL_AREA_STYLE('',(#540));
#466=EDGE_CURVE('',#541,#537,#542,.T.);
#467=EDGE_CURVE('',#541,#543,#544,.T.);
#468=EDGE_CURVE('',#535,#543,#545,.T.);
#469=FILL_AREA_STYLE('',(#546));
#470=EDGE_CURVE('',#543,#541,#547,.T.);
#471=FILL_AREA_STYLE('',(#548));
#472=EDGE_CURVE('',#535,#537,#549,.T.);
#473=FILL_AREA_STYLE('',(#550));
#474=DIRECTION('',(0.0,-1.0,0.0));
#475=DIRECTION('',(-2.04636307898932E-13,1.0,0.0));
#476=DIRECTION('',(-0.866025403784337,-0.500000000000176,0.0));
#477=DIRECTION('',(-1.0,0.0,0.0));
#478=DIRECTION('',(-0.707106781187854,0.707106781185241,0.0));
#479=DIRECTION('',(-1.0,0.0,0.0));
#480=DIRECTION('',(-0.866025403784429,-0.500000000000016,0.0));
#481=DIRECTION('',(0.0,-1.0,0.0));
#482=DIRECTION('',(1.0,0.0,0.0));
#483=FILL_AREA_STYLE_COLOUR('',#551);
#484=VERTEX_POINT('',#552);
#485=VERTEX_POINT('',#553);
#486=LINE('',#554,#555);
#487=VERTEX_POINT('',#556);
#488=CIRCLE('',#557,2.40000000000001);
#489=VERTEX_POINT('',#558);
#490=LINE('',#559,#560);
#491=CIRCLE('',#561,2.49999999999972);
#492=FILL_AREA_STYLE_COLOUR('',#562);
#493=VERTEX_POINT('',#563);
#494=LINE('',#564,#565);
#495=VERTEX_POINT('',#566);
#496=CIRCLE('',#567,2.40000000000001);
#497=LINE('',#568,#569);
#498=FILL_AREA_STYLE_COLOUR('',#570);
#499=VERTEX_POINT('',#571);
#500=LINE('',#572,#573);
#501=VERTEX_POINT('',#574);
#502=CIRCLE('',#575,2.5);
#503=LINE('',#576,#577);
#504=FILL_AREA_STYLE_COLOUR('',#578);
#505=VERTEX_POINT('',#579);
#506=LINE('',#580,#581);
#507=VERTEX_POINT('',#582);
#508=CIRCLE('',#583,2.5);
#509=LINE('',#584,#585);
#510=FILL_AREA_STYLE_COLOUR('',#586);
#511=VERTEX_POINT('',#587);
#512=LINE('',#588,#589);
#513=VERTEX_POINT('',#590);
#514=CIRCLE('',#591,2.35566243270259);
#515=LINE('',#592,#593);
#516=FILL_AREA_STYLE_COLOUR('',#594);
#517=CIRCLE('',#595,2.35566243270259);
#518=FILL_AREA_STYLE_COLOUR('',#596);
#519=CIRCLE('',#597,2.5);
#520=FILL_AREA_STYLE_COLOUR('',#598);
#521=CIRCLE('',#599,2.5);
#522=FILL_AREA_STYLE_COLOUR('',#600);
#523=CIRCLE('',#601,2.40000000000001);
#524=FILL_AREA_STYLE_COLOUR('',#602);
#525=CIRCLE('',#603,2.40000000000001);
#526=FILL_AREA_STYLE_COLOUR('',#604);
#527=CIRCLE('',#605,2.49999999999972);
#528=FILL_AREA_STYLE_COLOUR('',#606);
#529=DIRECTION('',(-0.382683432364704,0.923879532511446,0.0));
#530=DIRECTION('',(-1.0,-1.18599385101422E-14,0.0));
#531=DIRECTION('',(0.0,-1.0,0.0));
#532=DIRECTION('',(1.0,0.0,0.0));
#533=FILL_AREA_STYLE_COLOUR('',#607);
#534=VERTEX_POINT('',#608);
#535=VERTEX_POINT('',#609);
#536=LINE('',#610,#611);
#537=VERTEX_POINT('',#612);
#538=LINE('',#613,#614);
#539=CIRCLE('',#615,2.5);
#540=FILL_AREA_STYLE_COLOUR('',#616);
#541=VERTEX_POINT('',#617);
#542=LINE('',#618,#619);
#543=VERTEX_POINT('',#620);
#544=CIRCLE('',#621,2.49999999999972);
#545=LINE('',#622,#623);
#546=FILL_AREA_STYLE_COLOUR('',#624);
#547=CIRCLE('',#625,2.49999999999972);
#548=FILL_AREA_STYLE_COLOUR('',#626);
#549=CIRCLE('',#627,2.5);
#550=FILL_AREA_STYLE_COLOUR('',#628);
#551=COLOUR_RGB('',0.498039215803146,0.498039215803146,0.498039215803146);
#552=CARTESIAN_POINT('',(144.826794919243,2.40000000000001,0.0));
#553=CARTESIAN_POINT('',(144.999999999999,2.49999999999972,0.0));
#554=CARTESIAN_POINT('',(144.913397459621,2.44999999999986,-3.00038465791084E-16));
#555=VECTOR('',#629,1.0);
#556=CARTESIAN_POINT('',(144.826794919243,-2.40000000000001,2.93915231795365E-16));
#557=AXIS2_PLACEMENT_3D('',#630,#631,#632);
#558=CARTESIAN_POINT('',(144.999999999999,-2.49999999999972,3.06161699786804E-16));
#559=CARTESIAN_POINT('',(144.913397459621,-2.44999999999986,3.00038465791084E-16));
#560=VECTOR('',#633,1.0);
#561=AXIS2_PLACEMENT_3D('',#634,#635,#636);
#562=COLOUR_RGB('',0.498039215803146,0.498039215803146,0.498039215803146);
#563=CARTESIAN_POINT('',(34.1000000000004,2.40000000000001,0.0));
#564=CARTESIAN_POINT('',(89.4633974596218,2.40000000000001,-2.93915231795365E-16));
#565=VECTOR('',#637,1.0);
#566=CARTESIAN_POINT('',(34.1000000000004,-2.40000000000001,2.93915231795365E-16));
#567=AXIS2_PLACEMENT_3D('',#638,#639,#640);
#568=CARTESIAN_POINT('',(89.4633974596218,-2.40000000000001,2.93915231795365E-16));
#569=VECTOR('',#641,1.0);
#570=COLOUR_RGB('',0.498039215803146,0.498039215803146,0.498039215803146);
#571=CARTESIAN_POINT('',(34.0,2.5,0.0));
#572=CARTESIAN_POINT('',(34.0500000000002,2.45,-3.00038465791102E-16));
#573=VECTOR('',#642,1.0);
#574=CARTESIAN_POINT('',(34.0,-2.5,3.06161699786838E-16));
#575=AXIS2_PLACEMENT_3D('',#643,#644,#645);
#576=CARTESIAN_POINT('',(34.0500000000002,-2.45,3.00038465791102E-16));
#577=VECTOR('',#646,1.0);
#578=COLOUR_RGB('',0.498039215803146,0.498039215803146,0.498039215803146);
#579=CARTESIAN_POINT('',(0.25,2.5,0.0));
#580=CARTESIAN_POINT('',(17.125,2.5,-3.06161699786838E-16));
#581=VECTOR('',#647,1.0);
#582=CARTESIAN_POINT('',(0.25,-2.5,3.06161699786838E-16));
#583=AXIS2_PLACEMENT_3D('',#648,#649,#650);
#584=CARTESIAN_POINT('',(17.125,-2.5,3.06161699786838E-16));
#585=VECTOR('',#651,1.0);
#586=COLOUR_RGB('',0.498039215803146,0.498039215803146,0.498039215803146);
#587=CARTESIAN_POINT('',(0.0,2.35566243270259,0.0));
#588=CARTESIAN_POINT('',(0.125,2.42783121635129,-2.97323572797464E-16));
#589=VECTOR('',#652,1.0);
#590=CARTESIAN_POINT('',(0.0,-2.35566243270259,2.88485445808089E-16));
#591=AXIS2_PLACEMENT_3D('',#653,#654,#655);
#592=CARTESIAN_POINT('',(0.125,-2.42783121635129,2.97323572797464E-16));
#593=VECTOR('',#656,1.0);
#594=COLOUR_RGB('',0.498039215803146,0.498039215803146,0.498039215803146);
#595=AXIS2_PLACEMENT_3D('',#657,#658,#659);
#596=COLOUR_RGB('',0.498039215803146,0.498039215803146,0.498039215803146);
#597=AXIS2_PLACEMENT_3D('',#660,#661,#662);
#598=COLOUR_RGB('',0.498039215803146,0.498039215803146,0.498039215803146);
#599=AXIS2_PLACEMENT_3D('',#663,#664,#665);
#600=COLOUR_RGB('',0.498039215803146,0.498039215803146,0.498039215803146);
#601=AXIS2_PLACEMENT_3D('',#666,#667,#668);
#602=COLOUR_RGB('',0.498039215803146,0.498039215803146,0.498039215803146);
#603=AXIS2_PLACEMENT_3D('',#669,#670,#671);
#604=COLOUR_RGB('',0.498039215803146,0.498039215803146,0.498039215803146);
#605=AXIS2_PLACEMENT_3D('',#672,#673,#674);
#606=COLOUR_RGB('',0.498039215803146,0.498039215803146,0.498039215803146);
#607=COLOUR_RGB('',0.800000011920929,0.800000011920929,0.800000011920929);
#608=CARTESIAN_POINT('',(170.0,0.0,0.0));
#609=CARTESIAN_POINT('',(168.964466094068,-2.5,3.06161699786838E-16));
#610=CARTESIAN_POINT('',(169.482233047034,-1.25,1.53080849893419E-16));
#611=VECTOR('',#675,1.0);
#612=CARTESIAN_POINT('',(168.964466094068,2.5,0.0));
#613=CARTESIAN_POINT('',(169.482233047034,1.25,-1.53080849893419E-16));
#614=VECTOR('',#676,1.0);
#615=AXIS2_PLACEMENT_3D('',#677,#678,#679);
#616=COLOUR_RGB('',0.800000011920929,0.800000011920929,0.800000011920929);
#617=CARTESIAN_POINT('',(145.0,2.49999999999972,0.0));
#618=CARTESIAN_POINT('',(156.982233047034,2.49999999999986,-3.06161699786821E-16));
#619=VECTOR('',#680,1.0);
#620=CARTESIAN_POINT('',(145.0,-2.49999999999972,3.06161699786803E-16));
#621=AXIS2_PLACEMENT_3D('',#681,#682,#683);
#622=CARTESIAN_POINT('',(156.982233047034,-2.49999999999986,3.06161699786821E-16));
#623=VECTOR('',#684,1.0);
#624=COLOUR_RGB('',0.800000011920929,0.800000011920929,0.800000011920929);
#625=AXIS2_PLACEMENT_3D('',#685,#686,#687);
#626=COLOUR_RGB('',0.800000011920929,0.800000011920929,0.800000011920929);
#627=AXIS2_PLACEMENT_3D('',#688,#689,#690);
#628=COLOUR_RGB('',0.800000011920929,0.800000011920929,0.800000011920929);
#629=DIRECTION('',(0.866025403784337,0.500000000000177,-6.12323399573893E-17));
#630=CARTESIAN_POINT('',(144.826794919243,0.0,0.0));
#631=DIRECTION('',(1.0,0.0,0.0));
#632=DIRECTION('',(0.0,1.0,0.0));
#633=DIRECTION('',(-0.866025403784337,0.500000000000177,-6.12323399573893E-17));
#634=CARTESIAN_POINT('',(144.999999999999,0.0,0.0));
#635=DIRECTION('',(1.0,0.0,0.0));
#636=DIRECTION('',(0.0,1.0,0.0));
#637=DIRECTION('',(1.0,0.0,0.0));
#638=CARTESIAN_POINT('',(34.1000000000004,0.0,0.0));
#639=DIRECTION('',(1.0,0.0,0.0));
#640=DIRECTION('',(0.0,1.0,0.0));
#641=DIRECTION('',(-1.0,-0.0,-0.0));
#642=DIRECTION('',(0.707106781187854,-0.707106781185241,8.65956056233894E-17));
#643=CARTESIAN_POINT('',(34.0,0.0,0.0));
#644=DIRECTION('',(1.0,0.0,0.0));
#645=DIRECTION('',(0.0,1.0,0.0));
#646=DIRECTION('',(-0.707106781187854,-0.707106781185241,8.65956056233894E-17));
#647=DIRECTION('',(1.0,0.0,0.0));
#648=CARTESIAN_POINT('',(0.25,0.0,0.0));
#649=DIRECTION('',(1.0,0.0,0.0));
#650=DIRECTION('',(0.0,1.0,0.0));
#651=DIRECTION('',(-1.0,-0.0,-0.0));
#652=DIRECTION('',(0.866025403784429,0.500000000000016,-6.12323399573697E-17));
#653=CARTESIAN_POINT('',(0.0,0.0,0.0));
#654=DIRECTION('',(1.0,0.0,0.0));
#655=DIRECTION('',(0.0,1.0,0.0));
#656=DIRECTION('',(-0.866025403784429,0.500000000000016,-6.12323399573696E-17));
#657=CARTESIAN_POINT('',(0.0,0.0,0.0));
#658=DIRECTION('',(1.0,0.0,0.0));
#659=DIRECTION('',(0.0,1.0,0.0));
#660=CARTESIAN_POINT('',(0.25,0.0,0.0));
#661=DIRECTION('',(1.0,0.0,0.0));
#662=DIRECTION('',(0.0,1.0,0.0));
#663=CARTESIAN_POINT('',(34.0,0.0,0.0));
#664=DIRECTION('',(1.0,0.0,0.0));
#665=DIRECTION('',(0.0,1.0,0.0));
#666=CARTESIAN_POINT('',(34.1000000000004,0.0,0.0));
#667=DIRECTION('',(1.0,0.0,0.0));
#668=DIRECTION('',(0.0,1.0,0.0));
#669=CARTESIAN_POINT('',(144.826794919243,0.0,0.0));
#670=DIRECTION('',(1.0,0.0,0.0));
#671=DIRECTION('',(0.0,1.0,0.0));
#672=CARTESIAN_POINT('',(144.999999999999,0.0,0.0));
#673=DIRECTION('',(1.0,0.0,0.0));
#674=DIRECTION('',(0.0,1.0,0.0));
#675=DIRECTION('',(-0.382683432364704,-0.923879532511446,1.1314261122879E-16));
#676=DIRECTION('',(0.382683432364704,-0.923879532511446,1.1314261122879E-16));
#677=CARTESIAN_POINT('',(168.964466094068,0.0,0.0));
#678=DIRECTION('',(1.0,0.0,0.0));
#679=DIRECTION('',(0.0,1.0,0.0));
#680=DIRECTION('',(1.0,0.0,0.0));
#681=CARTESIAN_POINT('',(145.0,0.0,0.0));
#682=DIRECTION('',(1.0,0.0,0.0));
#683=DIRECTION('',(0.0,1.0,0.0));
#684=DIRECTION('',(-1.0,-0.0,-0.0));
#685=CARTESIAN_POINT('',(145.0,0.0,0.0));
#686=DIRECTION('',(1.0,0.0,0.0));
#687=DIRECTION('',(0.0,1.0,0.0));
#688=CARTESIAN_POINT('',(168.964466094068,0.0,0.0));
#689=DIRECTION('',(1.0,0.0,0.0));
#690=DIRECTION('',(0.0,1.0,0.0));
ENDSEC;
END-ISO-10303-21;
