ISO-10303-21;
HEADER;
FILE_DESCRIPTION(('STEP AP214'),'1');
FILE_NAME('608062491-000-00-E43.stp','2024-03-04T11:40:47',(' '),(' '),'Spatial InterOp 3D',' ',' ');
FILE_SCHEMA(('AUTOMOTIVE_DESIGN { 1 0 10303 214 1 1 1 1 }'));
ENDSEC;
DATA;
#1=MECHANICAL_DESIGN_GEOMETRIC_PRESENTATION_REPRESENTATION(' ',(#12,#13,#14,#15,#16,#17,#18,#19,#20,#21,#22,#23,#24,#25,#26,#27,#28,#29),#8);
#2=PRODUCT_DEFINITION_CONTEXT('',#30,'design');
#3=APPLICATION_PROTOCOL_DEFINITION('INTERNATIONAL STANDARD','automotive_design',1994,#30);
#4=PRODUCT_CATEGORY_RELATIONSHIP('NONE','NONE',#31,#32);
#5=SHAPE_DEFINITION_REPRESENTATION(#33,#34);
#6=SHAPE_DEFINITION_REPRESENTATION(#33,#35);
#7=SHAPE_DEFINITION_REPRESENTATION(#33,#36);
#8= (GEOMETRIC_REPRESENTATION_CONTEXT(3)GLOBAL_UNCERTAINTY_ASSIGNED_CONTEXT((#39))GLOBAL_UNIT_ASSIGNED_CONTEXT((#41,#42,#43))REPRESENTATION_CONTEXT('NONE','WORKSPACE'));
#12=STYLED_ITEM('',(#45),#46);
#13=STYLED_ITEM('',(#47),#48);
#14=STYLED_ITEM('',(#49),#50);
#15=STYLED_ITEM('',(#51),#52);
#16=STYLED_ITEM('',(#53),#54);
#17=STYLED_ITEM('',(#55),#56);
#18=STYLED_ITEM('',(#57),#58);
#19=STYLED_ITEM('',(#59),#60);
#20=STYLED_ITEM('',(#61),#62);
#21=STYLED_ITEM('',(#63),#64);
#22=STYLED_ITEM('',(#65),#66);
#23=STYLED_ITEM('',(#67),#68);
#24=STYLED_ITEM('',(#69),#70);
#25=STYLED_ITEM('',(#71),#72);
#26=STYLED_ITEM('',(#73),#74);
#27=STYLED_ITEM('',(#75),#76);
#28=STYLED_ITEM('',(#77),#78);
#29=STYLED_ITEM('',(#79),#80);
#30=APPLICATION_CONTEXT(' ');
#31=PRODUCT_CATEGORY('part','NONE');
#32=PRODUCT_RELATED_PRODUCT_CATEGORY('detail',' ',(#81));
#33=PRODUCT_DEFINITION_SHAPE('NONE','NONE',#82);
#34=ADVANCED_BREP_SHAPE_REPRESENTATION('1',(#83,#84),#8);
#35=ADVANCED_BREP_SHAPE_REPRESENTATION('2',(#85,#86),#8);
#36=GEOMETRICALLY_BOUNDED_SURFACE_SHAPE_REPRESENTATION('3',(#87,#88),#8);
#39=UNCERTAINTY_MEASURE_WITH_UNIT(LENGTH_MEASURE(1.0E-06),#41,'','');
#41= (CONVERSION_BASED_UNIT('MILLIMETRE',#91)LENGTH_UNIT()NAMED_UNIT(#94));
#42= (NAMED_UNIT(#96)PLANE_ANGLE_UNIT()SI_UNIT($,.RADIAN.));
#43= (NAMED_UNIT(#96)SOLID_ANGLE_UNIT()SI_UNIT($,.STERADIAN.));
#45=PRESENTATION_STYLE_ASSIGNMENT((#102));
#46=COMPOSITE_CURVE('',(#103),.U.);
#47=PRESENTATION_STYLE_ASSIGNMENT((#104));
#48=COMPOSITE_CURVE('',(#105,#106,#107,#108,#109,#110,#111,#112),.U.);
#49=PRESENTATION_STYLE_ASSIGNMENT((#113));
#50=ADVANCED_FACE('',(#114),#115,.T.);
#51=PRESENTATION_STYLE_ASSIGNMENT((#116));
#52=ADVANCED_FACE('',(#117),#118,.T.);
#53=PRESENTATION_STYLE_ASSIGNMENT((#119));
#54=ADVANCED_FACE('',(#120),#121,.T.);
#55=PRESENTATION_STYLE_ASSIGNMENT((#122));
#56=ADVANCED_FACE('',(#123),#124,.T.);
#57=PRESENTATION_STYLE_ASSIGNMENT((#125));
#58=ADVANCED_FACE('',(#126),#127,.T.);
#59=PRESENTATION_STYLE_ASSIGNMENT((#128));
#60=ADVANCED_FACE('',(#129),#130,.T.);
#61=PRESENTATION_STYLE_ASSIGNMENT((#131));
#62=ADVANCED_FACE('',(#132),#133,.T.);
#63=PRESENTATION_STYLE_ASSIGNMENT((#134));
#64=ADVANCED_FACE('',(#135),#136,.T.);
#65=PRESENTATION_STYLE_ASSIGNMENT((#137));
#66=ADVANCED_FACE('',(#138,#139),#140,.T.);
#67=PRESENTATION_STYLE_ASSIGNMENT((#141));
#68=COMPOSITE_CURVE('',(#142,#143,#144,#145,#146,#147),.U.);
#69=PRESENTATION_STYLE_ASSIGNMENT((#148));
#70=ADVANCED_FACE('',(#149),#150,.T.);
#71=PRESENTATION_STYLE_ASSIGNMENT((#151));
#72=ADVANCED_FACE('',(#152),#153,.T.);
#73=PRESENTATION_STYLE_ASSIGNMENT((#154));
#74=ADVANCED_FACE('',(#155),#156,.T.);
#75=PRESENTATION_STYLE_ASSIGNMENT((#157));
#76=ADVANCED_FACE('',(#158),#159,.T.);
#77=PRESENTATION_STYLE_ASSIGNMENT((#160));
#78=ADVANCED_FACE('',(#161),#162,.T.);
#79=PRESENTATION_STYLE_ASSIGNMENT((#163));
#80=ADVANCED_FACE('',(#164),#165,.T.);
#81=PRODUCT('1','','PART--DESC',(#166));
#82=PRODUCT_DEFINITION('','NONE',#167,#2);
#83=MANIFOLD_SOLID_BREP('1',#168);
#84=AXIS2_PLACEMENT_3D('',#169,#170,#171);
#85=MANIFOLD_SOLID_BREP('2',#172);
#86=AXIS2_PLACEMENT_3D('',#173,#174,#175);
#87=GEOMETRIC_SET('3',(#46,#48,#68));
#88=AXIS2_PLACEMENT_3D('',#176,#177,#178);
#91=LENGTH_MEASURE_WITH_UNIT(LENGTH_MEASURE(1.0),#179);
#94=DIMENSIONAL_EXPONENTS(1.0,0.0,0.0,0.0,0.0,0.0,0.0);
#96=DIMENSIONAL_EXPONENTS(0.0,0.0,0.0,0.0,0.0,0.0,0.0);
#102=CURVE_STYLE('',#180,POSITIVE_LENGTH_MEASURE(1.0E-06),#181);
#103=COMPOSITE_CURVE_SEGMENT(.CONTINUOUS.,.T.,#182);
#104=CURVE_STYLE('',#183,POSITIVE_LENGTH_MEASURE(1.0E-06),#184);
#105=COMPOSITE_CURVE_SEGMENT(.CONTINUOUS.,.T.,#185);
#106=COMPOSITE_CURVE_SEGMENT(.CONTINUOUS.,.T.,#186);
#107=COMPOSITE_CURVE_SEGMENT(.CONTINUOUS.,.T.,#187);
#108=COMPOSITE_CURVE_SEGMENT(.CONTINUOUS.,.T.,#188);
#109=COMPOSITE_CURVE_SEGMENT(.CONTINUOUS.,.T.,#189);
#110=COMPOSITE_CURVE_SEGMENT(.CONTINUOUS.,.T.,#190);
#111=COMPOSITE_CURVE_SEGMENT(.CONTINUOUS.,.T.,#191);
#112=COMPOSITE_CURVE_SEGMENT(.CONTINUOUS.,.T.,#192);
#113=SURFACE_STYLE_USAGE(.BOTH.,#193);
#114=FACE_OUTER_BOUND('',#194,.T.);
#115=CYLINDRICAL_SURFACE('',#195,8.0);
#116=SURFACE_STYLE_USAGE(.BOTH.,#196);
#117=FACE_OUTER_BOUND('',#197,.T.);
#118=CONICAL_SURFACE('',#198,7.39999999999998,0.785398163397448);
#119=SURFACE_STYLE_USAGE(.BOTH.,#199);
#120=FACE_OUTER_BOUND('',#200,.T.);
#121=CYLINDRICAL_SURFACE('',#201,7.9);
#122=SURFACE_STYLE_USAGE(.BOTH.,#202);
#123=FACE_OUTER_BOUND('',#203,.T.);
#124=CYLINDRICAL_SURFACE('',#204,7.9);
#125=SURFACE_STYLE_USAGE(.BOTH.,#205);
#126=FACE_OUTER_BOUND('',#206,.T.);
#127=PLANE('',#207);
#128=SURFACE_STYLE_USAGE(.BOTH.,#208);
#129=FACE_OUTER_BOUND('',#209,.T.);
#130=PLANE('',#210);
#131=SURFACE_STYLE_USAGE(.BOTH.,#211);
#132=FACE_OUTER_BOUND('',#212,.T.);
#133=CONICAL_SURFACE('',#213,7.39999999999998,0.785398163397448);
#134=SURFACE_STYLE_USAGE(.BOTH.,#214);
#135=FACE_OUTER_BOUND('',#215,.T.);
#136=CYLINDRICAL_SURFACE('',#216,8.0);
#137=SURFACE_STYLE_USAGE(.BOTH.,#217);
#138=FACE_BOUND('',#218,.T.);
#139=FACE_OUTER_BOUND('',#219,.T.);
#140=PLANE('',#220);
#141=CURVE_STYLE('',#221,POSITIVE_LENGTH_MEASURE(1.0E-06),#222);
#142=COMPOSITE_CURVE_SEGMENT(.CONTINUOUS.,.T.,#223);
#143=COMPOSITE_CURVE_SEGMENT(.CONTINUOUS.,.T.,#224);
#144=COMPOSITE_CURVE_SEGMENT(.CONTINUOUS.,.T.,#225);
#145=COMPOSITE_CURVE_SEGMENT(.CONTINUOUS.,.T.,#226);
#146=COMPOSITE_CURVE_SEGMENT(.CONTINUOUS.,.T.,#227);
#147=COMPOSITE_CURVE_SEGMENT(.CONTINUOUS.,.T.,#228);
#148=SURFACE_STYLE_USAGE(.BOTH.,#229);
#149=FACE_OUTER_BOUND('',#230,.T.);
#150=CONICAL_SURFACE('',#231,7.84,0.785398163397537);
#151=SURFACE_STYLE_USAGE(.BOTH.,#232);
#152=FACE_OUTER_BOUND('',#233,.T.);
#153=CYLINDRICAL_SURFACE('',#234,8.0);
#154=SURFACE_STYLE_USAGE(.BOTH.,#235);
#155=FACE_OUTER_BOUND('',#236,.T.);
#156=PLANE('',#237);
#157=SURFACE_STYLE_USAGE(.BOTH.,#238);
#158=FACE_OUTER_BOUND('',#239,.T.);
#159=CYLINDRICAL_SURFACE('',#240,8.0);
#160=SURFACE_STYLE_USAGE(.BOTH.,#241);
#161=FACE_OUTER_BOUND('',#242,.T.);
#162=CONICAL_SURFACE('',#243,7.84,0.785398163397537);
#163=SURFACE_STYLE_USAGE(.BOTH.,#244);
#164=FACE_OUTER_BOUND('',#245,.T.);
#165=PLANE('',#246);
#166=PRODUCT_CONTEXT('',#30,'mechanical');
#167=PRODUCT_DEFINITION_FORMATION_WITH_SPECIFIED_SOURCE(' ','NONE',#81,.NOT_KNOWN.);
#168=CLOSED_SHELL('',(#50,#52,#54,#56,#58,#60,#62,#64,#66));
#169=CARTESIAN_POINT('',(0.0,0.0,0.0));
#170=DIRECTION('',(0.0,0.0,1.0));
#171=DIRECTION('',(1.0,0.0,0.0));
#172=CLOSED_SHELL('',(#70,#72,#74,#76,#78,#80));
#173=CARTESIAN_POINT('',(0.0,0.0,0.0));
#174=DIRECTION('',(0.0,0.0,1.0));
#175=DIRECTION('',(1.0,0.0,0.0));
#176=CARTESIAN_POINT('',(0.0,0.0,0.0));
#177=DIRECTION('',(0.0,0.0,1.0));
#178=DIRECTION('',(1.0,0.0,0.0));
#179= (NAMED_UNIT(#94)LENGTH_UNIT()SI_UNIT(.MILLI.,.METRE.));
#180=DRAUGHTING_PRE_DEFINED_CURVE_FONT('continuous');
#181=COLOUR_RGB('',0.0,1.0,0.0);
#182=TRIMMED_CURVE('',#248,(PARAMETER_VALUE(0.0)),(PARAMETER_VALUE(7.90000000000001)),.T.,.UNSPECIFIED.);
#183=DRAUGHTING_PRE_DEFINED_CURVE_FONT('continuous');
#184=COLOUR_RGB('',0.498039215803146,0.498039215803146,0.498039215803146);
#185=TRIMMED_CURVE('',#249,(PARAMETER_VALUE(0.0)),(PARAMETER_VALUE(2.45631293186432)),.T.,.UNSPECIFIED.);
#186=TRIMMED_CURVE('',#250,(PARAMETER_VALUE(0.0)),(PARAMETER_VALUE(44.3436870681356)),.T.,.UNSPECIFIED.);
#187=TRIMMED_CURVE('',#251,(PARAMETER_VALUE(0.0)),(PARAMETER_VALUE(1.69705627484778)),.T.,.UNSPECIFIED.);
#188=TRIMMED_CURVE('',#252,(PARAMETER_VALUE(0.0)),(PARAMETER_VALUE(6.79999999999995)),.T.,.UNSPECIFIED.);
#189=TRIMMED_CURVE('',#253,(PARAMETER_VALUE(0.0)),(PARAMETER_VALUE(60.0)),.T.,.UNSPECIFIED.);
#190=TRIMMED_CURVE('',#254,(PARAMETER_VALUE(0.0)),(PARAMETER_VALUE(7.90000000000001)),.T.,.UNSPECIFIED.);
#191=TRIMMED_CURVE('',#255,(PARAMETER_VALUE(0.0)),(PARAMETER_VALUE(12.0)),.T.,.UNSPECIFIED.);
#192=TRIMMED_CURVE('',#256,(PARAMETER_VALUE(0.0)),(PARAMETER_VALUE(0.0999999999999943)),.T.,.UNSPECIFIED.);
#193=SURFACE_SIDE_STYLE('',(#257));
#194=EDGE_LOOP('',(#258,#259,#260,#261));
#195=AXIS2_PLACEMENT_3D('',#262,#263,#264);
#196=SURFACE_SIDE_STYLE('',(#265));
#197=EDGE_LOOP('',(#266,#267,#268,#269));
#198=AXIS2_PLACEMENT_3D('',#270,#271,#272);
#199=SURFACE_SIDE_STYLE('',(#273));
#200=EDGE_LOOP('',(#274,#275,#276,#277));
#201=AXIS2_PLACEMENT_3D('',#278,#279,#280);
#202=SURFACE_SIDE_STYLE('',(#281));
#203=EDGE_LOOP('',(#282,#283,#284,#285));
#204=AXIS2_PLACEMENT_3D('',#286,#287,#288);
#205=SURFACE_SIDE_STYLE('',(#289));
#206=EDGE_LOOP('',(#290,#291));
#207=AXIS2_PLACEMENT_3D('',#292,#293,#294);
#208=SURFACE_SIDE_STYLE('',(#295));
#209=EDGE_LOOP('',(#296,#297));
#210=AXIS2_PLACEMENT_3D('',#298,#299,#300);
#211=SURFACE_SIDE_STYLE('',(#301));
#212=EDGE_LOOP('',(#302,#303,#304,#305));
#213=AXIS2_PLACEMENT_3D('',#306,#307,#308);
#214=SURFACE_SIDE_STYLE('',(#309));
#215=EDGE_LOOP('',(#310,#311,#312,#313));
#216=AXIS2_PLACEMENT_3D('',#314,#315,#316);
#217=SURFACE_SIDE_STYLE('',(#317));
#218=EDGE_LOOP('',(#318,#319));
#219=EDGE_LOOP('',(#320,#321));
#220=AXIS2_PLACEMENT_3D('',#322,#323,#324);
#221=DRAUGHTING_PRE_DEFINED_CURVE_FONT('continuous');
#222=COLOUR_RGB('',0.0,0.0,1.0);
#223=TRIMMED_CURVE('',#325,(PARAMETER_VALUE(0.0)),(PARAMETER_VALUE(7.68000000000001)),.T.,.UNSPECIFIED.);
#224=TRIMMED_CURVE('',#326,(PARAMETER_VALUE(0.0)),(PARAMETER_VALUE(0.452548339959341)),.T.,.UNSPECIFIED.);
#225=TRIMMED_CURVE('',#327,(PARAMETER_VALUE(0.0)),(PARAMETER_VALUE(31.6800000000001)),.T.,.UNSPECIFIED.);
#226=TRIMMED_CURVE('',#328,(PARAMETER_VALUE(0.0)),(PARAMETER_VALUE(0.0999999999999943)),.T.,.UNSPECIFIED.);
#227=TRIMMED_CURVE('',#329,(PARAMETER_VALUE(0.0)),(PARAMETER_VALUE(7.90000000000001)),.T.,.UNSPECIFIED.);
#228=TRIMMED_CURVE('',#330,(PARAMETER_VALUE(0.0)),(PARAMETER_VALUE(32.0)),.T.,.UNSPECIFIED.);
#229=SURFACE_SIDE_STYLE('',(#331));
#230=EDGE_LOOP('',(#332,#333,#334,#335));
#231=AXIS2_PLACEMENT_3D('',#336,#337,#338);
#232=SURFACE_SIDE_STYLE('',(#339));
#233=EDGE_LOOP('',(#340,#341,#342,#343));
#234=AXIS2_PLACEMENT_3D('',#344,#345,#346);
#235=SURFACE_SIDE_STYLE('',(#347));
#236=EDGE_LOOP('',(#348,#349));
#237=AXIS2_PLACEMENT_3D('',#350,#351,#352);
#238=SURFACE_SIDE_STYLE('',(#353));
#239=EDGE_LOOP('',(#354,#355,#356,#357));
#240=AXIS2_PLACEMENT_3D('',#358,#359,#360);
#241=SURFACE_SIDE_STYLE('',(#361));
#242=EDGE_LOOP('',(#362,#363,#364,#365));
#243=AXIS2_PLACEMENT_3D('',#366,#367,#368);
#244=SURFACE_SIDE_STYLE('',(#369));
#245=EDGE_LOOP('',(#370,#371));
#246=AXIS2_PLACEMENT_3D('',#372,#373,#374);
#248=LINE('',#375,#376);
#249=LINE('',#377,#378);
#250=LINE('',#379,#380);
#251=LINE('',#381,#382);
#252=LINE('',#383,#384);
#253=LINE('',#385,#386);
#254=LINE('',#387,#388);
#255=LINE('',#389,#390);
#256=LINE('',#391,#392);
#257=SURFACE_STYLE_FILL_AREA(#393);
#258=ORIENTED_EDGE('',*,*,#394,.F.);
#259=ORIENTED_EDGE('',*,*,#395,.T.);
#260=ORIENTED_EDGE('',*,*,#396,.F.);
#261=ORIENTED_EDGE('',*,*,#397,.F.);
#262=CARTESIAN_POINT('',(-1.4328367550024E-15,0.0,23.4));
#263=DIRECTION('',(6.12323399573677E-17,0.0,-1.0));
#264=DIRECTION('',(0.0,1.0,0.0));
#265=SURFACE_STYLE_FILL_AREA(#398);
#266=ORIENTED_EDGE('',*,*,#399,.F.);
#267=ORIENTED_EDGE('',*,*,#400,.T.);
#268=ORIENTED_EDGE('',*,*,#401,.F.);
#269=ORIENTED_EDGE('',*,*,#395,.F.);
#270=CARTESIAN_POINT('',(-2.90241291397923E-15,0.0,47.4));
#271=DIRECTION('',(6.12323399573677E-17,-0.0,-1.0));
#272=DIRECTION('',(0.0,1.0,0.0));
#273=SURFACE_STYLE_FILL_AREA(#402);
#274=ORIENTED_EDGE('',*,*,#403,.F.);
#275=ORIENTED_EDGE('',*,*,#404,.T.);
#276=ORIENTED_EDGE('',*,*,#405,.F.);
#277=ORIENTED_EDGE('',*,*,#406,.F.);
#278=CARTESIAN_POINT('',(3.67394039744206E-16,0.0,-6.0));
#279=DIRECTION('',(6.12323399573677E-17,0.0,-1.0));
#280=DIRECTION('',(0.0,1.0,0.0));
#281=SURFACE_STYLE_FILL_AREA(#407);
#282=ORIENTED_EDGE('',*,*,#403,.T.);
#283=ORIENTED_EDGE('',*,*,#408,.F.);
#284=ORIENTED_EDGE('',*,*,#405,.T.);
#285=ORIENTED_EDGE('',*,*,#409,.T.);
#286=CARTESIAN_POINT('',(3.67394039744206E-16,0.0,-6.0));
#287=DIRECTION('',(6.12323399573677E-17,0.0,-1.0));
#288=DIRECTION('',(0.0,1.0,0.0));
#289=SURFACE_STYLE_FILL_AREA(#410);
#290=ORIENTED_EDGE('',*,*,#406,.T.);
#291=ORIENTED_EDGE('',*,*,#408,.T.);
#292=CARTESIAN_POINT('',(7.34788079488412E-16,3.95,-12.0));
#293=DIRECTION('',(6.12323399573677E-17,0.0,-1.0));
#294=DIRECTION('',(0.0,1.0,0.0));
#295=SURFACE_STYLE_FILL_AREA(#411);
#296=ORIENTED_EDGE('',*,*,#400,.F.);
#297=ORIENTED_EDGE('',*,*,#412,.F.);
#298=CARTESIAN_POINT('',(-2.93915231795365E-15,3.39999999999998,48.0));
#299=DIRECTION('',(-6.12323399573677E-17,0.0,1.0));
#300=DIRECTION('',(0.0,-1.0,0.0));
#301=SURFACE_STYLE_FILL_AREA(#413);
#302=ORIENTED_EDGE('',*,*,#399,.T.);
#303=ORIENTED_EDGE('',*,*,#414,.F.);
#304=ORIENTED_EDGE('',*,*,#401,.T.);
#305=ORIENTED_EDGE('',*,*,#412,.T.);
#306=CARTESIAN_POINT('',(-2.90241291397923E-15,0.0,47.4));
#307=DIRECTION('',(6.12323399573677E-17,-0.0,-1.0));
#308=DIRECTION('',(0.0,1.0,0.0));
#309=SURFACE_STYLE_FILL_AREA(#415);
#310=ORIENTED_EDGE('',*,*,#394,.T.);
#311=ORIENTED_EDGE('',*,*,#416,.F.);
#312=ORIENTED_EDGE('',*,*,#396,.T.);
#313=ORIENTED_EDGE('',*,*,#414,.T.);
#314=CARTESIAN_POINT('',(-1.4328367550024E-15,0.0,23.4));
#315=DIRECTION('',(6.12323399573677E-17,0.0,-1.0));
#316=DIRECTION('',(0.0,1.0,0.0));
#317=SURFACE_STYLE_FILL_AREA(#417);
#318=ORIENTED_EDGE('',*,*,#404,.F.);
#319=ORIENTED_EDGE('',*,*,#409,.F.);
#320=ORIENTED_EDGE('',*,*,#397,.T.);
#321=ORIENTED_EDGE('',*,*,#416,.T.);
#322=CARTESIAN_POINT('',(0.0,7.95,0.0));
#323=DIRECTION('',(6.12323399573677E-17,0.0,-1.0));
#324=DIRECTION('',(0.0,1.0,0.0));
#325=LINE('',#418,#419);
#326=LINE('',#420,#421);
#327=LINE('',#422,#423);
#328=LINE('',#424,#425);
#329=LINE('',#426,#427);
#330=LINE('',#428,#429);
#331=SURFACE_STYLE_FILL_AREA(#430);
#332=ORIENTED_EDGE('',*,*,#431,.F.);
#333=ORIENTED_EDGE('',*,*,#432,.T.);
#334=ORIENTED_EDGE('',*,*,#433,.F.);
#335=ORIENTED_EDGE('',*,*,#434,.F.);
#336=CARTESIAN_POINT('',(2.684425783731E-15,0.0,-43.84));
#337=DIRECTION('',(-6.12323399573677E-17,-0.0,1.0));
#338=DIRECTION('',(0.0,1.0,0.0));
#339=SURFACE_STYLE_FILL_AREA(#435);
#340=ORIENTED_EDGE('',*,*,#436,.F.);
#341=ORIENTED_EDGE('',*,*,#437,.T.);
#342=ORIENTED_EDGE('',*,*,#438,.F.);
#343=ORIENTED_EDGE('',*,*,#432,.F.);
#344=CARTESIAN_POINT('',(1.70470834441312E-15,0.0,-27.84));
#345=DIRECTION('',(6.12323399573677E-17,0.0,-1.0));
#346=DIRECTION('',(0.0,1.0,0.0));
#347=SURFACE_STYLE_FILL_AREA(#439);
#348=ORIENTED_EDGE('',*,*,#437,.F.);
#349=ORIENTED_EDGE('',*,*,#440,.F.);
#350=CARTESIAN_POINT('',(7.34788079488412E-16,4.0,-12.0));
#351=DIRECTION('',(-6.12323399573677E-17,0.0,1.0));
#352=DIRECTION('',(0.0,-1.0,0.0));
#353=SURFACE_STYLE_FILL_AREA(#441);
#354=ORIENTED_EDGE('',*,*,#436,.T.);
#355=ORIENTED_EDGE('',*,*,#442,.F.);
#356=ORIENTED_EDGE('',*,*,#438,.T.);
#357=ORIENTED_EDGE('',*,*,#440,.T.);
#358=CARTESIAN_POINT('',(1.70470834441312E-15,0.0,-27.84));
#359=DIRECTION('',(6.12323399573677E-17,0.0,-1.0));
#360=DIRECTION('',(0.0,1.0,0.0));
#361=SURFACE_STYLE_FILL_AREA(#443);
#362=ORIENTED_EDGE('',*,*,#431,.T.);
#363=ORIENTED_EDGE('',*,*,#444,.F.);
#364=ORIENTED_EDGE('',*,*,#433,.T.);
#365=ORIENTED_EDGE('',*,*,#442,.T.);
#366=CARTESIAN_POINT('',(2.684425783731E-15,0.0,-43.84));
#367=DIRECTION('',(-6.12323399573677E-17,-0.0,1.0));
#368=DIRECTION('',(0.0,1.0,0.0));
#369=SURFACE_STYLE_FILL_AREA(#445);
#370=ORIENTED_EDGE('',*,*,#434,.T.);
#371=ORIENTED_EDGE('',*,*,#444,.T.);
#372=CARTESIAN_POINT('',(2.69422295812418E-15,3.84,-44.0));
#373=DIRECTION('',(6.12323399573677E-17,0.0,-1.0));
#374=DIRECTION('',(0.0,1.0,0.0));
#375=CARTESIAN_POINT('',(0.0,7.90000000000001,0.0));
#376=VECTOR('',#446,1.0);
#377=CARTESIAN_POINT('',(0.0,8.0,0.0));
#378=VECTOR('',#447,1.0);
#379=CARTESIAN_POINT('',(-1.50405788485594E-16,8.0,2.45631293186432));
#380=VECTOR('',#448,1.0);
#381=CARTESIAN_POINT('',(-2.8656735100048E-15,8.0,46.8));
#382=VECTOR('',#449,1.0);
#383=CARTESIAN_POINT('',(-2.93915231795365E-15,6.79999999999995,48.0));
#384=VECTOR('',#450,1.0);
#385=CARTESIAN_POINT('',(-2.93915231795365E-15,0.0,48.0));
#386=VECTOR('',#451,1.0);
#387=CARTESIAN_POINT('',(7.34788079488412E-16,0.0,-12.0));
#388=VECTOR('',#452,1.0);
#389=CARTESIAN_POINT('',(7.34788079488412E-16,7.90000000000001,-12.0));
#390=VECTOR('',#453,1.0);
#391=CARTESIAN_POINT('',(0.0,7.90000000000001,0.0));
#392=VECTOR('',#454,1.0);
#393=FILL_AREA_STYLE('',(#455));
#394=EDGE_CURVE('',#456,#457,#458,.T.);
#395=EDGE_CURVE('',#456,#459,#460,.T.);
#396=EDGE_CURVE('',#461,#459,#462,.T.);
#397=EDGE_CURVE('',#457,#461,#463,.T.);
#398=FILL_AREA_STYLE('',(#464));
#399=EDGE_CURVE('',#465,#456,#466,.T.);
#400=EDGE_CURVE('',#465,#467,#468,.T.);
#401=EDGE_CURVE('',#459,#467,#469,.T.);
#402=FILL_AREA_STYLE('',(#470));
#403=EDGE_CURVE('',#471,#472,#473,.T.);
#404=EDGE_CURVE('',#471,#474,#475,.T.);
#405=EDGE_CURVE('',#476,#474,#477,.T.);
#406=EDGE_CURVE('',#472,#476,#478,.T.);
#407=FILL_AREA_STYLE('',(#479));
#408=EDGE_CURVE('',#476,#472,#480,.T.);
#409=EDGE_CURVE('',#474,#471,#481,.T.);
#410=FILL_AREA_STYLE('',(#482));
#411=FILL_AREA_STYLE('',(#483));
#412=EDGE_CURVE('',#467,#465,#484,.T.);
#413=FILL_AREA_STYLE('',(#485));
#414=EDGE_CURVE('',#459,#456,#486,.T.);
#415=FILL_AREA_STYLE('',(#487));
#416=EDGE_CURVE('',#461,#457,#488,.T.);
#417=FILL_AREA_STYLE('',(#489));
#418=CARTESIAN_POINT('',(2.69422295812418E-15,0.0,-44.0));
#419=VECTOR('',#490,1.0);
#420=CARTESIAN_POINT('',(2.69422295812418E-15,7.68000000000001,-44.0));
#421=VECTOR('',#491,1.0);
#422=CARTESIAN_POINT('',(2.67462860933782E-15,8.0,-43.6800000000001));
#423=VECTOR('',#492,1.0);
#424=CARTESIAN_POINT('',(7.34788079488412E-16,8.0,-12.0));
#425=VECTOR('',#493,1.0);
#426=CARTESIAN_POINT('',(7.34788079488412E-16,7.90000000000001,-12.0));
#427=VECTOR('',#494,1.0);
#428=CARTESIAN_POINT('',(7.34788079488412E-16,0.0,-12.0));
#429=VECTOR('',#495,1.0);
#430=FILL_AREA_STYLE('',(#496));
#431=EDGE_CURVE('',#497,#498,#499,.T.);
#432=EDGE_CURVE('',#497,#500,#501,.T.);
#433=EDGE_CURVE('',#502,#500,#503,.T.);
#434=EDGE_CURVE('',#498,#502,#504,.T.);
#435=FILL_AREA_STYLE('',(#505));
#436=EDGE_CURVE('',#506,#497,#507,.T.);
#437=EDGE_CURVE('',#506,#508,#509,.T.);
#438=EDGE_CURVE('',#500,#508,#510,.T.);
#439=FILL_AREA_STYLE('',(#511));
#440=EDGE_CURVE('',#508,#506,#512,.T.);
#441=FILL_AREA_STYLE('',(#513));
#442=EDGE_CURVE('',#500,#497,#514,.T.);
#443=FILL_AREA_STYLE('',(#515));
#444=EDGE_CURVE('',#502,#498,#516,.T.);
#445=FILL_AREA_STYLE('',(#517));
#446=DIRECTION('',(0.0,-1.0,0.0));
#447=DIRECTION('',(-6.12323399573677E-17,0.0,1.0));
#448=DIRECTION('',(-6.12323399573677E-17,0.0,1.0));
#449=DIRECTION('',(-4.32978028117745E-17,-0.707106781186547,0.707106781186547));
#450=DIRECTION('',(0.0,-1.0,0.0));
#451=DIRECTION('',(6.12323399573676E-17,0.0,-1.0));
#452=DIRECTION('',(0.0,1.0,0.0));
#453=DIRECTION('',(-6.12323399573677E-17,0.0,1.0));
#454=DIRECTION('',(0.0,1.0,0.0));
#455=FILL_AREA_STYLE_COLOUR('',#518);
#456=VERTEX_POINT('',#519);
#457=VERTEX_POINT('',#520);
#458=LINE('',#521,#522);
#459=VERTEX_POINT('',#523);
#460=CIRCLE('',#524,8.0);
#461=VERTEX_POINT('',#525);
#462=LINE('',#526,#527);
#463=CIRCLE('',#528,8.0);
#464=FILL_AREA_STYLE_COLOUR('',#529);
#465=VERTEX_POINT('',#530);
#466=LINE('',#531,#532);
#467=VERTEX_POINT('',#533);
#468=CIRCLE('',#534,6.79999999999995);
#469=LINE('',#535,#536);
#470=FILL_AREA_STYLE_COLOUR('',#537);
#471=VERTEX_POINT('',#538);
#472=VERTEX_POINT('',#539);
#473=LINE('',#540,#541);
#474=VERTEX_POINT('',#542);
#475=CIRCLE('',#543,7.9);
#476=VERTEX_POINT('',#544);
#477=LINE('',#545,#546);
#478=CIRCLE('',#547,7.9);
#479=FILL_AREA_STYLE_COLOUR('',#548);
#480=CIRCLE('',#549,7.9);
#481=CIRCLE('',#550,7.9);
#482=FILL_AREA_STYLE_COLOUR('',#551);
#483=FILL_AREA_STYLE_COLOUR('',#552);
#484=CIRCLE('',#553,6.79999999999995);
#485=FILL_AREA_STYLE_COLOUR('',#554);
#486=CIRCLE('',#555,8.0);
#487=FILL_AREA_STYLE_COLOUR('',#556);
#488=CIRCLE('',#557,8.0);
#489=FILL_AREA_STYLE_COLOUR('',#558);
#490=DIRECTION('',(0.0,1.0,0.0));
#491=DIRECTION('',(-4.32978028117715E-17,0.70710678118661,0.707106781186485));
#492=DIRECTION('',(-6.12323399573677E-17,0.0,1.0));
#493=DIRECTION('',(0.0,-1.0,0.0));
#494=DIRECTION('',(0.0,-1.0,0.0));
#495=DIRECTION('',(6.12323399573677E-17,0.0,-1.0));
#496=FILL_AREA_STYLE_COLOUR('',#559);
#497=VERTEX_POINT('',#560);
#498=VERTEX_POINT('',#561);
#499=LINE('',#562,#563);
#500=VERTEX_POINT('',#564);
#501=CIRCLE('',#565,8.0);
#502=VERTEX_POINT('',#566);
#503=LINE('',#567,#568);
#504=CIRCLE('',#569,7.68000000000001);
#505=FILL_AREA_STYLE_COLOUR('',#570);
#506=VERTEX_POINT('',#571);
#507=LINE('',#572,#573);
#508=VERTEX_POINT('',#574);
#509=CIRCLE('',#575,8.0);
#510=LINE('',#576,#577);
#511=FILL_AREA_STYLE_COLOUR('',#578);
#512=CIRCLE('',#579,8.0);
#513=FILL_AREA_STYLE_COLOUR('',#580);
#514=CIRCLE('',#581,8.0);
#515=FILL_AREA_STYLE_COLOUR('',#582);
#516=CIRCLE('',#583,7.68000000000001);
#517=FILL_AREA_STYLE_COLOUR('',#584);
#518=COLOUR_RGB('',0.498039215803146,0.498039215803146,0.498039215803146);
#519=CARTESIAN_POINT('',(-2.8656735100048E-15,8.0,46.8));
#520=CARTESIAN_POINT('',(0.0,8.0,0.0));
#521=CARTESIAN_POINT('',(-2.41255419432028E-15,8.0,23.4));
#522=VECTOR('',#585,1.0);
#523=CARTESIAN_POINT('',(-1.88595607068692E-15,-8.0,46.8));
#524=AXIS2_PLACEMENT_3D('',#586,#587,#588);
#525=CARTESIAN_POINT('',(9.79717439317883E-16,-8.0,5.99903913064743E-32));
#526=CARTESIAN_POINT('',(-4.53119315684519E-16,-8.0,23.4));
#527=VECTOR('',#589,1.0);
#528=AXIS2_PLACEMENT_3D('',#590,#591,#592);
#529=COLOUR_RGB('',0.498039215803146,0.498039215803146,0.498039215803146);
#530=CARTESIAN_POINT('',(-2.93915231795365E-15,6.79999999999995,48.0));
#531=CARTESIAN_POINT('',(-3.80865154534826E-15,7.39999999999998,47.4));
#532=VECTOR('',#593,1.0);
#533=CARTESIAN_POINT('',(-2.10639249453345E-15,-6.79999999999995,48.0));
#534=AXIS2_PLACEMENT_3D('',#594,#595,#596);
#535=CARTESIAN_POINT('',(-1.99617428261019E-15,-7.39999999999998,47.4));
#536=VECTOR('',#597,1.0);
#537=COLOUR_RGB('',0.498039215803146,0.498039215803146,0.498039215803146);
#538=CARTESIAN_POINT('',(0.0,7.90000000000001,0.0));
#539=CARTESIAN_POINT('',(7.34788079488412E-16,7.90000000000001,-12.0));
#540=CARTESIAN_POINT('',(-6.00076931582203E-16,7.9,-6.0));
#541=VECTOR('',#598,1.0);
#542=CARTESIAN_POINT('',(9.6747097132641E-16,-7.9,5.92405114151434E-32));
#543=AXIS2_PLACEMENT_3D('',#599,#600,#601);
#544=CARTESIAN_POINT('',(1.70225905081482E-15,-7.9,-12.0));
#545=CARTESIAN_POINT('',(1.33486501107062E-15,-7.9,-6.0));
#546=VECTOR('',#602,1.0);
#547=AXIS2_PLACEMENT_3D('',#603,#604,#605);
#548=COLOUR_RGB('',0.498039215803146,0.498039215803146,0.498039215803146);
#549=AXIS2_PLACEMENT_3D('',#606,#607,#608);
#550=AXIS2_PLACEMENT_3D('',#609,#610,#611);
#551=COLOUR_RGB('',0.498039215803146,0.498039215803146,0.498039215803146);
#552=COLOUR_RGB('',0.498039215803146,0.498039215803146,0.498039215803146);
#553=AXIS2_PLACEMENT_3D('',#612,#613,#614);
#554=COLOUR_RGB('',0.498039215803146,0.498039215803146,0.498039215803146);
#555=AXIS2_PLACEMENT_3D('',#615,#616,#617);
#556=COLOUR_RGB('',0.498039215803146,0.498039215803146,0.498039215803146);
#557=AXIS2_PLACEMENT_3D('',#618,#619,#620);
#558=COLOUR_RGB('',0.498039215803146,0.498039215803146,0.498039215803146);
#559=COLOUR_RGB('',0.800000011920929,0.800000011920929,0.800000011920929);
#560=CARTESIAN_POINT('',(2.67462860933782E-15,8.0,-43.6800000000001));
#561=CARTESIAN_POINT('',(2.69422295812418E-15,7.68000000000001,-44.0));
#562=CARTESIAN_POINT('',(1.72430269319948E-15,7.84,-43.84));
#563=VECTOR('',#621,1.0);
#564=CARTESIAN_POINT('',(3.65434604865571E-15,-8.0,-43.6800000000001));
#565=AXIS2_PLACEMENT_3D('',#622,#623,#624);
#566=CARTESIAN_POINT('',(3.63475169986935E-15,-7.68000000000001,-44.0));
#567=CARTESIAN_POINT('',(3.64454887426253E-15,-7.84,-43.84));
#568=VECTOR('',#625,1.0);
#569=AXIS2_PLACEMENT_3D('',#626,#627,#628);
#570=COLOUR_RGB('',0.800000011920929,0.800000011920929,0.800000011920929);
#571=CARTESIAN_POINT('',(7.34788079488412E-16,8.0,-12.0));
#572=CARTESIAN_POINT('',(7.24990905095235E-16,8.0,-27.84));
#573=VECTOR('',#629,1.0);
#574=CARTESIAN_POINT('',(1.71450551880629E-15,-8.0,-12.0));
#575=AXIS2_PLACEMENT_3D('',#630,#631,#632);
#576=CARTESIAN_POINT('',(2.684425783731E-15,-8.0,-27.84));
#577=VECTOR('',#633,1.0);
#578=COLOUR_RGB('',0.800000011920929,0.800000011920929,0.800000011920929);
#579=AXIS2_PLACEMENT_3D('',#634,#635,#636);
#580=COLOUR_RGB('',0.800000011920929,0.800000011920929,0.800000011920929);
#581=AXIS2_PLACEMENT_3D('',#637,#638,#639);
#582=COLOUR_RGB('',0.800000011920929,0.800000011920929,0.800000011920929);
#583=AXIS2_PLACEMENT_3D('',#640,#641,#642);
#584=COLOUR_RGB('',0.800000011920929,0.800000011920929,0.800000011920929);
#585=DIRECTION('',(6.12323399573677E-17,0.0,-1.0));
#586=CARTESIAN_POINT('',(-2.8656735100048E-15,0.0,46.8));
#587=DIRECTION('',(6.12323399573677E-17,0.0,-1.0));
#588=DIRECTION('',(0.0,1.0,0.0));
#589=DIRECTION('',(-6.12323399573677E-17,-0.0,1.0));
#590=CARTESIAN_POINT('',(0.0,0.0,0.0));
#591=DIRECTION('',(6.12323399573677E-17,0.0,-1.0));
#592=DIRECTION('',(0.0,1.0,0.0));
#593=DIRECTION('',(-4.32978028117747E-17,0.707106781186547,-0.707106781186548));
#594=CARTESIAN_POINT('',(-2.93915231795365E-15,0.0,48.0));
#595=DIRECTION('',(6.12323399573676E-17,0.0,-1.0));
#596=DIRECTION('',(0.0,1.0,0.0));
#597=DIRECTION('',(-1.29893408435324E-16,0.707106781186547,0.707106781186548));
#598=DIRECTION('',(6.12323399573677E-17,0.0,-1.0));
#599=CARTESIAN_POINT('',(0.0,0.0,0.0));
#600=DIRECTION('',(6.12323399573677E-17,0.0,-1.0));
#601=DIRECTION('',(0.0,1.0,0.0));
#602=DIRECTION('',(-6.12323399573677E-17,-0.0,1.0));
#603=CARTESIAN_POINT('',(7.34788079488412E-16,0.0,-12.0));
#604=DIRECTION('',(6.12323399573677E-17,0.0,-1.0));
#605=DIRECTION('',(0.0,1.0,0.0));
#606=CARTESIAN_POINT('',(7.34788079488412E-16,0.0,-12.0));
#607=DIRECTION('',(6.12323399573677E-17,0.0,-1.0));
#608=DIRECTION('',(0.0,1.0,0.0));
#609=CARTESIAN_POINT('',(0.0,0.0,0.0));
#610=DIRECTION('',(6.12323399573677E-17,0.0,-1.0));
#611=DIRECTION('',(0.0,1.0,0.0));
#612=CARTESIAN_POINT('',(-2.93915231795365E-15,0.0,48.0));
#613=DIRECTION('',(6.12323399573676E-17,0.0,-1.0));
#614=DIRECTION('',(0.0,1.0,0.0));
#615=CARTESIAN_POINT('',(-2.8656735100048E-15,0.0,46.8));
#616=DIRECTION('',(6.12323399573677E-17,0.0,-1.0));
#617=DIRECTION('',(0.0,1.0,0.0));
#618=CARTESIAN_POINT('',(0.0,0.0,0.0));
#619=DIRECTION('',(6.12323399573677E-17,0.0,-1.0));
#620=DIRECTION('',(0.0,1.0,0.0));
#621=DIRECTION('',(1.29893408435328E-16,-0.70710678118661,-0.707106781186485));
#622=CARTESIAN_POINT('',(2.67462860933782E-15,0.0,-43.6800000000001));
#623=DIRECTION('',(6.12323399573677E-17,0.0,-1.0));
#624=DIRECTION('',(0.0,1.0,0.0));
#625=DIRECTION('',(4.32978028117862E-17,-0.70710678118661,0.707106781186485));
#626=CARTESIAN_POINT('',(2.69422295812418E-15,0.0,-44.0));
#627=DIRECTION('',(6.12323399573677E-17,0.0,-1.0));
#628=DIRECTION('',(0.0,1.0,0.0));
#629=DIRECTION('',(6.12323399573677E-17,0.0,-1.0));
#630=CARTESIAN_POINT('',(7.34788079488412E-16,0.0,-12.0));
#631=DIRECTION('',(6.12323399573677E-17,0.0,-1.0));
#632=DIRECTION('',(0.0,1.0,0.0));
#633=DIRECTION('',(-6.12323399573677E-17,-0.0,1.0));
#634=CARTESIAN_POINT('',(7.34788079488412E-16,0.0,-12.0));
#635=DIRECTION('',(6.12323399573677E-17,0.0,-1.0));
#636=DIRECTION('',(0.0,1.0,0.0));
#637=CARTESIAN_POINT('',(2.67462860933782E-15,0.0,-43.6800000000001));
#638=DIRECTION('',(6.12323399573677E-17,0.0,-1.0));
#639=DIRECTION('',(0.0,1.0,0.0));
#640=CARTESIAN_POINT('',(2.69422295812418E-15,0.0,-44.0));
#641=DIRECTION('',(6.12323399573677E-17,0.0,-1.0));
#642=DIRECTION('',(0.0,1.0,0.0));
#643=DIRECTION('',(0.0,0.0,1.0));
#644=DIRECTION('',(1.0,0.0,0.0));
#645=CARTESIAN_POINT('',(0.0,0.0,48.000000));
#646=AXIS2_PLACEMENT_3D('PCS', #645,#643,#644);
#647=CARTESIAN_POINT('',(0.0,0.0,0.000000));
#648=AXIS2_PLACEMENT_3D('MCS', #647,#643,#644);
#649=CARTESIAN_POINT('',(0.0,0.0,-44.000000));
#650=AXIS2_PLACEMENT_3D('CIP', #649,#643,#644);
ENDSEC;
END-ISO-10303-21;
