ISO-10303-21;
HEADER;
FILE_DESCRIPTION(('STEP AP214'),'1');
FILE_NAME('608058217-000-00-E43.stp','2024-02-23T09:23:57',(' '),(' '),'Spatial InterOp 3D',' ',' ');
FILE_SCHEMA(('AUTOMOTIVE_DESIGN { 1 0 10303 214 1 1 1 1 }'));
ENDSEC;
DATA;
#1=MECHANICAL_DESIGN_GEOMETRIC_PRESENTATION_REPRESENTATION(' ',(#12,#13,#14,#15,#16,#17,#18,#19,#20,#21,#22,#23,#24,#25,#26,#27,#28,#29,#30),#8);
#2=PRODUCT_DEFINITION_CONTEXT('',#31,'design');
#3=APPLICATION_PROTOCOL_DEFINITION('INTERNATIONAL STANDARD','automotive_design',1994,#31);
#4=PRODUCT_CATEGORY_RELATIONSHIP('NONE','NONE',#32,#33);
#5=SHAPE_DEFINITION_REPRESENTATION(#34,#35);
#6=SHAPE_DEFINITION_REPRESENTATION(#34,#36);
#7=SHAPE_DEFINITION_REPRESENTATION(#34,#37);
#8= (GEOMETRIC_REPRESENTATION_CONTEXT(3)GLOBAL_UNCERTAINTY_ASSIGNED_CONTEXT((#40))GLOBAL_UNIT_ASSIGNED_CONTEXT((#42,#43,#44))REPRESENTATION_CONTEXT('NONE','WORKSPACE'));
#12=STYLED_ITEM('',(#46),#47);
#13=STYLED_ITEM('',(#48),#49);
#14=STYLED_ITEM('',(#50),#51);
#15=STYLED_ITEM('',(#52),#53);
#16=STYLED_ITEM('',(#54),#55);
#17=STYLED_ITEM('',(#56),#57);
#18=STYLED_ITEM('',(#58),#59);
#19=STYLED_ITEM('',(#60),#61);
#20=STYLED_ITEM('',(#62),#63);
#21=STYLED_ITEM('',(#64),#65);
#22=STYLED_ITEM('',(#66),#67);
#23=STYLED_ITEM('',(#68),#69);
#24=STYLED_ITEM('',(#70),#71);
#25=STYLED_ITEM('',(#72),#73);
#26=STYLED_ITEM('',(#74),#75);
#27=STYLED_ITEM('',(#76),#77);
#28=STYLED_ITEM('',(#78),#79);
#29=STYLED_ITEM('',(#80),#81);
#30=STYLED_ITEM('',(#82),#83);
#31=APPLICATION_CONTEXT(' ');
#32=PRODUCT_CATEGORY('part','NONE');
#33=PRODUCT_RELATED_PRODUCT_CATEGORY('detail',' ',(#84));
#34=PRODUCT_DEFINITION_SHAPE('NONE','NONE',#85);
#35=ADVANCED_BREP_SHAPE_REPRESENTATION('1',(#86,#87),#8);
#36=ADVANCED_BREP_SHAPE_REPRESENTATION('2',(#88,#89),#8);
#37=GEOMETRICALLY_BOUNDED_SURFACE_SHAPE_REPRESENTATION('3',(#90,#91),#8);
#40=UNCERTAINTY_MEASURE_WITH_UNIT(LENGTH_MEASURE(1.0E-06),#42,'','');
#42= (CONVERSION_BASED_UNIT('MILLIMETRE',#94)LENGTH_UNIT()NAMED_UNIT(#97));
#43= (NAMED_UNIT(#99)PLANE_ANGLE_UNIT()SI_UNIT($,.RADIAN.));
#44= (NAMED_UNIT(#99)SOLID_ANGLE_UNIT()SI_UNIT($,.STERADIAN.));
#46=PRESENTATION_STYLE_ASSIGNMENT((#105));
#47=COMPOSITE_CURVE('',(#106,#107,#108,#109,#110,#111,#112),.U.);
#48=PRESENTATION_STYLE_ASSIGNMENT((#113));
#49=ADVANCED_FACE('',(#114),#115,.T.);
#50=PRESENTATION_STYLE_ASSIGNMENT((#116));
#51=ADVANCED_FACE('',(#117),#118,.T.);
#52=PRESENTATION_STYLE_ASSIGNMENT((#119));
#53=ADVANCED_FACE('',(#120),#121,.T.);
#54=PRESENTATION_STYLE_ASSIGNMENT((#122));
#55=ADVANCED_FACE('',(#123),#124,.T.);
#56=PRESENTATION_STYLE_ASSIGNMENT((#125));
#57=ADVANCED_FACE('',(#126),#127,.T.);
#58=PRESENTATION_STYLE_ASSIGNMENT((#128));
#59=ADVANCED_FACE('',(#129),#130,.T.);
#60=PRESENTATION_STYLE_ASSIGNMENT((#131));
#61=ADVANCED_FACE('',(#132),#133,.T.);
#62=PRESENTATION_STYLE_ASSIGNMENT((#134));
#63=ADVANCED_FACE('',(#135),#136,.T.);
#64=PRESENTATION_STYLE_ASSIGNMENT((#137));
#65=ADVANCED_FACE('',(#138),#139,.T.);
#66=PRESENTATION_STYLE_ASSIGNMENT((#140));
#67=ADVANCED_FACE('',(#141),#142,.T.);
#68=PRESENTATION_STYLE_ASSIGNMENT((#143));
#69=COMPOSITE_CURVE('',(#144,#145,#146,#147,#148),.U.);
#70=PRESENTATION_STYLE_ASSIGNMENT((#149));
#71=ADVANCED_FACE('',(#150),#151,.T.);
#72=PRESENTATION_STYLE_ASSIGNMENT((#152));
#73=ADVANCED_FACE('',(#153),#154,.T.);
#74=PRESENTATION_STYLE_ASSIGNMENT((#155));
#75=ADVANCED_FACE('',(#156),#157,.T.);
#76=PRESENTATION_STYLE_ASSIGNMENT((#158));
#77=ADVANCED_FACE('',(#159),#160,.T.);
#78=PRESENTATION_STYLE_ASSIGNMENT((#161));
#79=ADVANCED_FACE('',(#162),#163,.T.);
#80=PRESENTATION_STYLE_ASSIGNMENT((#164));
#81=ADVANCED_FACE('',(#165),#166,.T.);
#82=PRESENTATION_STYLE_ASSIGNMENT((#167));
#83=COMPOSITE_CURVE('',(#168),.U.);
#84=PRODUCT('1','','PART--DESC',(#169));
#85=PRODUCT_DEFINITION('','NONE',#170,#2);
#86=MANIFOLD_SOLID_BREP('1',#171);
#87=AXIS2_PLACEMENT_3D('',#172,#173,#174);
#88=MANIFOLD_SOLID_BREP('2',#175);
#89=AXIS2_PLACEMENT_3D('',#176,#177,#178);
#90=GEOMETRIC_SET('3',(#47,#69,#83));
#91=AXIS2_PLACEMENT_3D('',#179,#180,#181);
#94=LENGTH_MEASURE_WITH_UNIT(LENGTH_MEASURE(1.0),#182);
#97=DIMENSIONAL_EXPONENTS(1.0,0.0,0.0,0.0,0.0,0.0,0.0);
#99=DIMENSIONAL_EXPONENTS(0.0,0.0,0.0,0.0,0.0,0.0,0.0);
#105=CURVE_STYLE('',#183,POSITIVE_LENGTH_MEASURE(1.0E-06),#184);
#106=COMPOSITE_CURVE_SEGMENT(.CONTINUOUS.,.T.,#185);
#107=COMPOSITE_CURVE_SEGMENT(.CONTINUOUS.,.T.,#186);
#108=COMPOSITE_CURVE_SEGMENT(.CONTINUOUS.,.T.,#187);
#109=COMPOSITE_CURVE_SEGMENT(.CONTINUOUS.,.T.,#188);
#110=COMPOSITE_CURVE_SEGMENT(.CONTINUOUS.,.T.,#189);
#111=COMPOSITE_CURVE_SEGMENT(.CONTINUOUS.,.T.,#190);
#112=COMPOSITE_CURVE_SEGMENT(.CONTINUOUS.,.T.,#191);
#113=SURFACE_STYLE_USAGE(.BOTH.,#192);
#114=FACE_OUTER_BOUND('',#193,.T.);
#115=CYLINDRICAL_SURFACE('',#194,5.5);
#116=SURFACE_STYLE_USAGE(.BOTH.,#195);
#117=FACE_OUTER_BOUND('',#196,.T.);
#118=CONICAL_SURFACE('',#197,5.75,0.785398163397449);
#119=SURFACE_STYLE_USAGE(.BOTH.,#198);
#120=FACE_OUTER_BOUND('',#199,.T.);
#121=CYLINDRICAL_SURFACE('',#200,6.0);
#122=SURFACE_STYLE_USAGE(.BOTH.,#201);
#123=FACE_OUTER_BOUND('',#202,.T.);
#124=CONICAL_SURFACE('',#203,4.7,0.785398163397448);
#125=SURFACE_STYLE_USAGE(.BOTH.,#204);
#126=FACE_OUTER_BOUND('',#205,.T.);
#127=PLANE('',#206);
#128=SURFACE_STYLE_USAGE(.BOTH.,#207);
#129=FACE_OUTER_BOUND('',#208,.T.);
#130=CONICAL_SURFACE('',#209,4.7,0.785398163397448);
#131=SURFACE_STYLE_USAGE(.BOTH.,#210);
#132=FACE_OUTER_BOUND('',#211,.T.);
#133=CYLINDRICAL_SURFACE('',#212,6.0);
#134=SURFACE_STYLE_USAGE(.BOTH.,#213);
#135=FACE_OUTER_BOUND('',#214,.T.);
#136=CONICAL_SURFACE('',#215,5.75,0.785398163397449);
#137=SURFACE_STYLE_USAGE(.BOTH.,#216);
#138=FACE_OUTER_BOUND('',#217,.T.);
#139=CYLINDRICAL_SURFACE('',#218,5.5);
#140=SURFACE_STYLE_USAGE(.BOTH.,#219);
#141=FACE_OUTER_BOUND('',#220,.T.);
#142=PLANE('',#221);
#143=CURVE_STYLE('',#222,POSITIVE_LENGTH_MEASURE(1.0E-06),#223);
#144=COMPOSITE_CURVE_SEGMENT(.CONTINUOUS.,.T.,#224);
#145=COMPOSITE_CURVE_SEGMENT(.CONTINUOUS.,.T.,#225);
#146=COMPOSITE_CURVE_SEGMENT(.CONTINUOUS.,.T.,#226);
#147=COMPOSITE_CURVE_SEGMENT(.CONTINUOUS.,.T.,#227);
#148=COMPOSITE_CURVE_SEGMENT(.CONTINUOUS.,.T.,#228);
#149=SURFACE_STYLE_USAGE(.BOTH.,#229);
#150=FACE_OUTER_BOUND('',#230,.T.);
#151=CONICAL_SURFACE('',#231,5.34122867597285,0.523598775598301);
#152=SURFACE_STYLE_USAGE(.BOTH.,#232);
#153=FACE_OUTER_BOUND('',#233,.T.);
#154=CYLINDRICAL_SURFACE('',#234,5.5);
#155=SURFACE_STYLE_USAGE(.BOTH.,#235);
#156=FACE_OUTER_BOUND('',#236,.T.);
#157=CYLINDRICAL_SURFACE('',#237,5.5);
#158=SURFACE_STYLE_USAGE(.BOTH.,#238);
#159=FACE_OUTER_BOUND('',#239,.T.);
#160=CONICAL_SURFACE('',#240,5.34122867597285,0.523598775598301);
#161=SURFACE_STYLE_USAGE(.BOTH.,#241);
#162=FACE_OUTER_BOUND('',#242,.T.);
#163=PLANE('',#243);
#164=SURFACE_STYLE_USAGE(.BOTH.,#244);
#165=FACE_OUTER_BOUND('',#245,.T.);
#166=PLANE('',#246);
#167=CURVE_STYLE('',#247,POSITIVE_LENGTH_MEASURE(1.0E-06),#248);
#168=COMPOSITE_CURVE_SEGMENT(.CONTINUOUS.,.T.,#249);
#169=PRODUCT_CONTEXT('',#31,'mechanical');
#170=PRODUCT_DEFINITION_FORMATION_WITH_SPECIFIED_SOURCE(' ','NONE',#84,.NOT_KNOWN.);
#171=CLOSED_SHELL('',(#49,#51,#53,#55,#57,#59,#61,#63,#65,#67));
#172=CARTESIAN_POINT('',(0.0,0.0,0.0));
#173=DIRECTION('',(0.0,0.0,1.0));
#174=DIRECTION('',(1.0,0.0,0.0));
#175=CLOSED_SHELL('',(#71,#73,#75,#77,#79,#81));
#176=CARTESIAN_POINT('',(0.0,0.0,0.0));
#177=DIRECTION('',(0.0,0.0,1.0));
#178=DIRECTION('',(1.0,0.0,0.0));
#179=CARTESIAN_POINT('',(0.0,0.0,0.0));
#180=DIRECTION('',(0.0,0.0,1.0));
#181=DIRECTION('',(1.0,0.0,0.0));
#182= (NAMED_UNIT(#97)LENGTH_UNIT()SI_UNIT(.MILLI.,.METRE.));
#183=DRAUGHTING_PRE_DEFINED_CURVE_FONT('continuous');
#184=COLOUR_RGB('',0.498039215803146,0.498039215803146,0.498039215803146);
#185=TRIMMED_CURVE('',#251,(PARAMETER_VALUE(0.0)),(PARAMETER_VALUE(3.40000000000001)),.T.,.UNSPECIFIED.);
#186=TRIMMED_CURVE('',#252,(PARAMETER_VALUE(0.0)),(PARAMETER_VALUE(3.67695526217004)),.T.,.UNSPECIFIED.);
#187=TRIMMED_CURVE('',#253,(PARAMETER_VALUE(0.0)),(PARAMETER_VALUE(42.4)),.T.,.UNSPECIFIED.);
#188=TRIMMED_CURVE('',#254,(PARAMETER_VALUE(0.0)),(PARAMETER_VALUE(0.707106781186547)),.T.,.UNSPECIFIED.);
#189=TRIMMED_CURVE('',#255,(PARAMETER_VALUE(0.0)),(PARAMETER_VALUE(1.5)),.T.,.UNSPECIFIED.);
#190=TRIMMED_CURVE('',#256,(PARAMETER_VALUE(0.0)),(PARAMETER_VALUE(5.5)),.T.,.UNSPECIFIED.);
#191=TRIMMED_CURVE('',#257,(PARAMETER_VALUE(0.0)),(PARAMETER_VALUE(47.0)),.T.,.UNSPECIFIED.);
#192=SURFACE_SIDE_STYLE('',(#258));
#193=EDGE_LOOP('',(#259,#260,#261,#262));
#194=AXIS2_PLACEMENT_3D('',#263,#264,#265);
#195=SURFACE_SIDE_STYLE('',(#266));
#196=EDGE_LOOP('',(#267,#268,#269,#270));
#197=AXIS2_PLACEMENT_3D('',#271,#272,#273);
#198=SURFACE_SIDE_STYLE('',(#274));
#199=EDGE_LOOP('',(#275,#276,#277,#278));
#200=AXIS2_PLACEMENT_3D('',#279,#280,#281);
#201=SURFACE_SIDE_STYLE('',(#282));
#202=EDGE_LOOP('',(#283,#284,#285,#286));
#203=AXIS2_PLACEMENT_3D('',#287,#288,#289);
#204=SURFACE_SIDE_STYLE('',(#290));
#205=EDGE_LOOP('',(#291,#292));
#206=AXIS2_PLACEMENT_3D('',#293,#294,#295);
#207=SURFACE_SIDE_STYLE('',(#296));
#208=EDGE_LOOP('',(#297,#298,#299,#300));
#209=AXIS2_PLACEMENT_3D('',#301,#302,#303);
#210=SURFACE_SIDE_STYLE('',(#304));
#211=EDGE_LOOP('',(#305,#306,#307,#308));
#212=AXIS2_PLACEMENT_3D('',#309,#310,#311);
#213=SURFACE_SIDE_STYLE('',(#312));
#214=EDGE_LOOP('',(#313,#314,#315,#316));
#215=AXIS2_PLACEMENT_3D('',#317,#318,#319);
#216=SURFACE_SIDE_STYLE('',(#320));
#217=EDGE_LOOP('',(#321,#322,#323,#324));
#218=AXIS2_PLACEMENT_3D('',#325,#326,#327);
#219=SURFACE_SIDE_STYLE('',(#328));
#220=EDGE_LOOP('',(#329,#330));
#221=AXIS2_PLACEMENT_3D('',#331,#332,#333);
#222=DRAUGHTING_PRE_DEFINED_CURVE_FONT('continuous');
#223=COLOUR_RGB('',0.0,0.0,1.0);
#224=TRIMMED_CURVE('',#334,(PARAMETER_VALUE(0.0)),(PARAMETER_VALUE(69.0)),.T.,.UNSPECIFIED.);
#225=TRIMMED_CURVE('',#335,(PARAMETER_VALUE(0.0)),(PARAMETER_VALUE(5.18245735194571)),.T.,.UNSPECIFIED.);
#226=TRIMMED_CURVE('',#336,(PARAMETER_VALUE(0.0)),(PARAMETER_VALUE(0.635085296108586)),.T.,.UNSPECIFIED.);
#227=TRIMMED_CURVE('',#337,(PARAMETER_VALUE(0.0)),(PARAMETER_VALUE(68.45)),.T.,.UNSPECIFIED.);
#228=TRIMMED_CURVE('',#338,(PARAMETER_VALUE(0.0)),(PARAMETER_VALUE(5.5)),.T.,.UNSPECIFIED.);
#229=SURFACE_SIDE_STYLE('',(#339));
#230=EDGE_LOOP('',(#340,#341,#342,#343));
#231=AXIS2_PLACEMENT_3D('',#344,#345,#346);
#232=SURFACE_SIDE_STYLE('',(#347));
#233=EDGE_LOOP('',(#348,#349,#350,#351));
#234=AXIS2_PLACEMENT_3D('',#352,#353,#354);
#235=SURFACE_SIDE_STYLE('',(#355));
#236=EDGE_LOOP('',(#356,#357,#358,#359));
#237=AXIS2_PLACEMENT_3D('',#360,#361,#362);
#238=SURFACE_SIDE_STYLE('',(#363));
#239=EDGE_LOOP('',(#364,#365,#366,#367));
#240=AXIS2_PLACEMENT_3D('',#368,#369,#370);
#241=SURFACE_SIDE_STYLE('',(#371));
#242=EDGE_LOOP('',(#372,#373));
#243=AXIS2_PLACEMENT_3D('',#374,#375,#376);
#244=SURFACE_SIDE_STYLE('',(#377));
#245=EDGE_LOOP('',(#378,#379));
#246=AXIS2_PLACEMENT_3D('',#380,#381,#382);
#247=DRAUGHTING_PRE_DEFINED_CURVE_FONT('continuous');
#248=COLOUR_RGB('',0.0,1.0,0.0);
#249=TRIMMED_CURVE('',#383,(PARAMETER_VALUE(0.0)),(PARAMETER_VALUE(6.0)),.T.,.UNSPECIFIED.);
#251=LINE('',#384,#385);
#252=LINE('',#386,#387);
#253=LINE('',#388,#389);
#254=LINE('',#390,#391);
#255=LINE('',#392,#393);
#256=LINE('',#394,#395);
#257=LINE('',#396,#397);
#258=SURFACE_STYLE_FILL_AREA(#398);
#259=ORIENTED_EDGE('',*,*,#399,.F.);
#260=ORIENTED_EDGE('',*,*,#400,.T.);
#261=ORIENTED_EDGE('',*,*,#401,.F.);
#262=ORIENTED_EDGE('',*,*,#402,.F.);
#263=CARTESIAN_POINT('',(7.65404249467095E-17,0.0,-1.25));
#264=DIRECTION('',(6.12323399573677E-17,0.0,-1.0));
#265=DIRECTION('',(0.0,1.0,0.0));
#266=SURFACE_STYLE_FILL_AREA(#403);
#267=ORIENTED_EDGE('',*,*,#404,.F.);
#268=ORIENTED_EDGE('',*,*,#405,.T.);
#269=ORIENTED_EDGE('',*,*,#406,.F.);
#270=ORIENTED_EDGE('',*,*,#400,.F.);
#271=CARTESIAN_POINT('',(1.53080849893419E-17,0.0,-0.25));
#272=DIRECTION('',(-6.12323399573677E-17,-0.0,1.0));
#273=DIRECTION('',(0.0,1.0,0.0));
#274=SURFACE_STYLE_FILL_AREA(#407);
#275=ORIENTED_EDGE('',*,*,#408,.F.);
#276=ORIENTED_EDGE('',*,*,#409,.T.);
#277=ORIENTED_EDGE('',*,*,#410,.F.);
#278=ORIENTED_EDGE('',*,*,#405,.F.);
#279=CARTESIAN_POINT('',(-1.29812560709619E-15,0.0,21.2));
#280=DIRECTION('',(6.12323399573676E-17,0.0,-1.0));
#281=DIRECTION('',(0.0,1.0,0.0));
#282=SURFACE_STYLE_FILL_AREA(#411);
#283=ORIENTED_EDGE('',*,*,#412,.F.);
#284=ORIENTED_EDGE('',*,*,#413,.T.);
#285=ORIENTED_EDGE('',*,*,#414,.F.);
#286=ORIENTED_EDGE('',*,*,#409,.F.);
#287=CARTESIAN_POINT('',(-2.67585325613697E-15,0.0,43.7));
#288=DIRECTION('',(6.12323399573677E-17,-0.0,-1.0));
#289=DIRECTION('',(0.0,1.0,0.0));
#290=SURFACE_STYLE_FILL_AREA(#415);
#291=ORIENTED_EDGE('',*,*,#413,.F.);
#292=ORIENTED_EDGE('',*,*,#416,.F.);
#293=CARTESIAN_POINT('',(-2.75545529808154E-15,1.7,45.0));
#294=DIRECTION('',(-6.12323399573677E-17,0.0,1.0));
#295=DIRECTION('',(0.0,-1.0,0.0));
#296=SURFACE_STYLE_FILL_AREA(#417);
#297=ORIENTED_EDGE('',*,*,#412,.T.);
#298=ORIENTED_EDGE('',*,*,#418,.F.);
#299=ORIENTED_EDGE('',*,*,#414,.T.);
#300=ORIENTED_EDGE('',*,*,#416,.T.);
#301=CARTESIAN_POINT('',(-2.67585325613697E-15,0.0,43.7));
#302=DIRECTION('',(6.12323399573677E-17,-0.0,-1.0));
#303=DIRECTION('',(0.0,1.0,0.0));
#304=SURFACE_STYLE_FILL_AREA(#419);
#305=ORIENTED_EDGE('',*,*,#408,.T.);
#306=ORIENTED_EDGE('',*,*,#420,.F.);
#307=ORIENTED_EDGE('',*,*,#410,.T.);
#308=ORIENTED_EDGE('',*,*,#418,.T.);
#309=CARTESIAN_POINT('',(-1.29812560709619E-15,0.0,21.2));
#310=DIRECTION('',(6.12323399573676E-17,0.0,-1.0));
#311=DIRECTION('',(0.0,1.0,0.0));
#312=SURFACE_STYLE_FILL_AREA(#421);
#313=ORIENTED_EDGE('',*,*,#404,.T.);
#314=ORIENTED_EDGE('',*,*,#422,.F.);
#315=ORIENTED_EDGE('',*,*,#406,.T.);
#316=ORIENTED_EDGE('',*,*,#420,.T.);
#317=CARTESIAN_POINT('',(1.53080849893419E-17,0.0,-0.25));
#318=DIRECTION('',(-6.12323399573677E-17,-0.0,1.0));
#319=DIRECTION('',(0.0,1.0,0.0));
#320=SURFACE_STYLE_FILL_AREA(#423);
#321=ORIENTED_EDGE('',*,*,#399,.T.);
#322=ORIENTED_EDGE('',*,*,#424,.F.);
#323=ORIENTED_EDGE('',*,*,#401,.T.);
#324=ORIENTED_EDGE('',*,*,#422,.T.);
#325=CARTESIAN_POINT('',(7.65404249467095E-17,0.0,-1.25));
#326=DIRECTION('',(6.12323399573677E-17,0.0,-1.0));
#327=DIRECTION('',(0.0,1.0,0.0));
#328=SURFACE_STYLE_FILL_AREA(#425);
#329=ORIENTED_EDGE('',*,*,#402,.T.);
#330=ORIENTED_EDGE('',*,*,#424,.T.);
#331=CARTESIAN_POINT('',(1.22464679914735E-16,2.75,-2.0));
#332=DIRECTION('',(6.12323399573677E-17,0.0,-1.0));
#333=DIRECTION('',(0.0,1.0,0.0));
#334=LINE('',#426,#427);
#335=LINE('',#428,#429);
#336=LINE('',#430,#431);
#337=LINE('',#432,#433);
#338=LINE('',#434,#435);
#339=SURFACE_STYLE_FILL_AREA(#436);
#340=ORIENTED_EDGE('',*,*,#437,.F.);
#341=ORIENTED_EDGE('',*,*,#438,.T.);
#342=ORIENTED_EDGE('',*,*,#439,.F.);
#343=ORIENTED_EDGE('',*,*,#440,.F.);
#344=CARTESIAN_POINT('',(4.33065724348483E-15,0.0,-70.725));
#345=DIRECTION('',(-6.12323399573677E-17,-0.0,1.0));
#346=DIRECTION('',(0.0,1.0,0.0));
#347=SURFACE_STYLE_FILL_AREA(#441);
#348=ORIENTED_EDGE('',*,*,#442,.F.);
#349=ORIENTED_EDGE('',*,*,#443,.T.);
#350=ORIENTED_EDGE('',*,*,#444,.F.);
#351=ORIENTED_EDGE('',*,*,#438,.F.);
#352=CARTESIAN_POINT('',(2.21814151495564E-15,0.0,-36.225));
#353=DIRECTION('',(6.12323399573677E-17,0.0,-1.0));
#354=DIRECTION('',(0.0,1.0,0.0));
#355=SURFACE_STYLE_FILL_AREA(#445);
#356=ORIENTED_EDGE('',*,*,#442,.T.);
#357=ORIENTED_EDGE('',*,*,#446,.F.);
#358=ORIENTED_EDGE('',*,*,#444,.T.);
#359=ORIENTED_EDGE('',*,*,#447,.T.);
#360=CARTESIAN_POINT('',(2.21814151495564E-15,0.0,-36.225));
#361=DIRECTION('',(6.12323399573677E-17,0.0,-1.0));
#362=DIRECTION('',(0.0,1.0,0.0));
#363=SURFACE_STYLE_FILL_AREA(#448);
#364=ORIENTED_EDGE('',*,*,#437,.T.);
#365=ORIENTED_EDGE('',*,*,#449,.F.);
#366=ORIENTED_EDGE('',*,*,#439,.T.);
#367=ORIENTED_EDGE('',*,*,#446,.T.);
#368=CARTESIAN_POINT('',(4.33065724348483E-15,0.0,-70.725));
#369=DIRECTION('',(-6.12323399573677E-17,-0.0,1.0));
#370=DIRECTION('',(0.0,1.0,0.0));
#371=SURFACE_STYLE_FILL_AREA(#450);
#372=ORIENTED_EDGE('',*,*,#440,.T.);
#373=ORIENTED_EDGE('',*,*,#449,.T.);
#374=CARTESIAN_POINT('',(4.3474961369731E-15,2.59122867597285,-71.0));
#375=DIRECTION('',(6.12323399573677E-17,0.0,-1.0));
#376=DIRECTION('',(0.0,1.0,0.0));
#377=SURFACE_STYLE_FILL_AREA(#451);
#378=ORIENTED_EDGE('',*,*,#443,.F.);
#379=ORIENTED_EDGE('',*,*,#447,.F.);
#380=CARTESIAN_POINT('',(1.22464679914735E-16,2.75,-2.0));
#381=DIRECTION('',(-6.12323399573677E-17,0.0,1.0));
#382=DIRECTION('',(0.0,-1.0,0.0));
#383=LINE('',#452,#453);
#384=CARTESIAN_POINT('',(-2.75545529808154E-15,0.0,45.0));
#385=VECTOR('',#454,1.0);
#386=CARTESIAN_POINT('',(-2.75545529808154E-15,3.40000000000001,45.0));
#387=VECTOR('',#455,1.0);
#388=CARTESIAN_POINT('',(-2.59625121419239E-15,6.0,42.4));
#389=VECTOR('',#456,1.0);
#390=CARTESIAN_POINT('',(0.0,6.0,0.0));
#391=VECTOR('',#457,1.0);
#392=CARTESIAN_POINT('',(3.06161699786838E-17,5.5,-0.5));
#393=VECTOR('',#458,1.0);
#394=CARTESIAN_POINT('',(1.22464679914735E-16,5.5,-2.0));
#395=VECTOR('',#459,1.0);
#396=CARTESIAN_POINT('',(1.22464679914735E-16,0.0,-2.0));
#397=VECTOR('',#460,1.0);
#398=FILL_AREA_STYLE('',(#461));
#399=EDGE_CURVE('',#462,#463,#464,.T.);
#400=EDGE_CURVE('',#462,#465,#466,.T.);
#401=EDGE_CURVE('',#467,#465,#468,.T.);
#402=EDGE_CURVE('',#463,#467,#469,.T.);
#403=FILL_AREA_STYLE('',(#470));
#404=EDGE_CURVE('',#471,#462,#472,.T.);
#405=EDGE_CURVE('',#471,#473,#474,.T.);
#406=EDGE_CURVE('',#465,#473,#475,.T.);
#407=FILL_AREA_STYLE('',(#476));
#408=EDGE_CURVE('',#477,#471,#478,.T.);
#409=EDGE_CURVE('',#477,#479,#480,.T.);
#410=EDGE_CURVE('',#473,#479,#481,.T.);
#411=FILL_AREA_STYLE('',(#482));
#412=EDGE_CURVE('',#483,#477,#484,.T.);
#413=EDGE_CURVE('',#483,#485,#486,.T.);
#414=EDGE_CURVE('',#479,#485,#487,.T.);
#415=FILL_AREA_STYLE('',(#488));
#416=EDGE_CURVE('',#485,#483,#489,.T.);
#417=FILL_AREA_STYLE('',(#490));
#418=EDGE_CURVE('',#479,#477,#491,.T.);
#419=FILL_AREA_STYLE('',(#492));
#420=EDGE_CURVE('',#473,#471,#493,.T.);
#421=FILL_AREA_STYLE('',(#494));
#422=EDGE_CURVE('',#465,#462,#495,.T.);
#423=FILL_AREA_STYLE('',(#496));
#424=EDGE_CURVE('',#467,#463,#497,.T.);
#425=FILL_AREA_STYLE('',(#498));
#426=CARTESIAN_POINT('',(1.22464679914735E-16,0.0,-2.0));
#427=VECTOR('',#499,1.0);
#428=CARTESIAN_POINT('',(4.3474961369731E-15,0.0,-71.0));
#429=VECTOR('',#500,1.0);
#430=CARTESIAN_POINT('',(4.3474961369731E-15,5.18245735194571,-71.0));
#431=VECTOR('',#501,1.0);
#432=CARTESIAN_POINT('',(4.31381834999655E-15,5.5,-70.45));
#433=VECTOR('',#502,1.0);
#434=CARTESIAN_POINT('',(1.22464679914735E-16,5.5,-2.0));
#435=VECTOR('',#503,1.0);
#436=FILL_AREA_STYLE('',(#504));
#437=EDGE_CURVE('',#505,#506,#507,.T.);
#438=EDGE_CURVE('',#505,#508,#509,.T.);
#439=EDGE_CURVE('',#510,#508,#511,.T.);
#440=EDGE_CURVE('',#506,#510,#512,.T.);
#441=FILL_AREA_STYLE('',(#513));
#442=EDGE_CURVE('',#514,#505,#515,.T.);
#443=EDGE_CURVE('',#514,#516,#517,.T.);
#444=EDGE_CURVE('',#508,#516,#518,.T.);
#445=FILL_AREA_STYLE('',(#519));
#446=EDGE_CURVE('',#508,#505,#520,.T.);
#447=EDGE_CURVE('',#516,#514,#521,.T.);
#448=FILL_AREA_STYLE('',(#522));
#449=EDGE_CURVE('',#510,#506,#523,.T.);
#450=FILL_AREA_STYLE('',(#524));
#451=FILL_AREA_STYLE('',(#525));
#452=CARTESIAN_POINT('',(0.0,6.0,0.0));
#453=VECTOR('',#526,1.0);
#454=DIRECTION('',(0.0,1.0,0.0));
#455=DIRECTION('',(4.32978028117747E-17,0.707106781186548,-0.707106781186548));
#456=DIRECTION('',(6.12323399573677E-17,0.0,-1.0));
#457=DIRECTION('',(4.32978028117747E-17,-0.707106781186547,-0.707106781186547));
#458=DIRECTION('',(6.12323399573677E-17,0.0,-1.0));
#459=DIRECTION('',(0.0,-1.0,0.0));
#460=DIRECTION('',(-6.12323399573677E-17,0.0,1.0));
#461=FILL_AREA_STYLE_COLOUR('',#527);
#462=VERTEX_POINT('',#528);
#463=VERTEX_POINT('',#529);
#464=LINE('',#530,#531);
#465=VERTEX_POINT('',#532);
#466=CIRCLE('',#533,5.5);
#467=VERTEX_POINT('',#534);
#468=LINE('',#535,#536);
#469=CIRCLE('',#537,5.5);
#470=FILL_AREA_STYLE_COLOUR('',#538);
#471=VERTEX_POINT('',#539);
#472=LINE('',#540,#541);
#473=VERTEX_POINT('',#542);
#474=CIRCLE('',#543,6.0);
#475=LINE('',#544,#545);
#476=FILL_AREA_STYLE_COLOUR('',#546);
#477=VERTEX_POINT('',#547);
#478=LINE('',#548,#549);
#479=VERTEX_POINT('',#550);
#480=CIRCLE('',#551,6.0);
#481=LINE('',#552,#553);
#482=FILL_AREA_STYLE_COLOUR('',#554);
#483=VERTEX_POINT('',#555);
#484=LINE('',#556,#557);
#485=VERTEX_POINT('',#558);
#486=CIRCLE('',#559,3.40000000000001);
#487=LINE('',#560,#561);
#488=FILL_AREA_STYLE_COLOUR('',#562);
#489=CIRCLE('',#563,3.40000000000001);
#490=FILL_AREA_STYLE_COLOUR('',#564);
#491=CIRCLE('',#565,6.0);
#492=FILL_AREA_STYLE_COLOUR('',#566);
#493=CIRCLE('',#567,6.0);
#494=FILL_AREA_STYLE_COLOUR('',#568);
#495=CIRCLE('',#569,5.5);
#496=FILL_AREA_STYLE_COLOUR('',#570);
#497=CIRCLE('',#571,5.5);
#498=FILL_AREA_STYLE_COLOUR('',#572);
#499=DIRECTION('',(6.12323399573677E-17,0.0,-1.0));
#500=DIRECTION('',(0.0,1.0,0.0));
#501=DIRECTION('',(-5.30287619362457E-17,0.500000000000002,0.866025403784437));
#502=DIRECTION('',(-6.12323399573677E-17,0.0,1.0));
#503=DIRECTION('',(0.0,-1.0,0.0));
#504=FILL_AREA_STYLE_COLOUR('',#573);
#505=VERTEX_POINT('',#574);
#506=VERTEX_POINT('',#575);
#507=LINE('',#576,#577);
#508=VERTEX_POINT('',#578);
#509=CIRCLE('',#579,5.5);
#510=VERTEX_POINT('',#580);
#511=LINE('',#581,#582);
#512=CIRCLE('',#583,5.18245735194571);
#513=FILL_AREA_STYLE_COLOUR('',#584);
#514=VERTEX_POINT('',#585);
#515=LINE('',#586,#587);
#516=VERTEX_POINT('',#588);
#517=CIRCLE('',#589,5.5);
#518=LINE('',#590,#591);
#519=FILL_AREA_STYLE_COLOUR('',#592);
#520=CIRCLE('',#593,5.5);
#521=CIRCLE('',#594,5.5);
#522=FILL_AREA_STYLE_COLOUR('',#595);
#523=CIRCLE('',#596,5.18245735194571);
#524=FILL_AREA_STYLE_COLOUR('',#597);
#525=FILL_AREA_STYLE_COLOUR('',#598);
#526=DIRECTION('',(0.0,-1.0,0.0));
#527=COLOUR_RGB('',0.498039215803146,0.498039215803146,0.498039215803146);
#528=CARTESIAN_POINT('',(3.06161699786838E-17,5.5,-0.5));
#529=CARTESIAN_POINT('',(1.22464679914735E-16,5.5,-2.0));
#530=CARTESIAN_POINT('',(-5.97015314584335E-16,5.5,-1.25));
#531=VECTOR('',#599,1.0);
#532=CARTESIAN_POINT('',(7.04171909509728E-16,-5.5,-0.5));
#533=AXIS2_PLACEMENT_3D('',#600,#601,#602);
#534=CARTESIAN_POINT('',(7.96020419445779E-16,-5.5,-2.0));
#535=CARTESIAN_POINT('',(7.50096164477754E-16,-5.5,-1.25));
#536=VECTOR('',#603,1.0);
#537=AXIS2_PLACEMENT_3D('',#604,#605,#606);
#538=COLOUR_RGB('',0.498039215803146,0.498039215803146,0.498039215803146);
#539=CARTESIAN_POINT('',(0.0,6.0,0.0));
#540=CARTESIAN_POINT('',(-6.88863824520386E-16,5.75,-0.25));
#541=VECTOR('',#607,1.0);
#542=CARTESIAN_POINT('',(7.34788079488412E-16,-6.0,4.49927934798557E-32));
#543=AXIS2_PLACEMENT_3D('',#608,#609,#610);
#544=CARTESIAN_POINT('',(7.1947999449907E-16,-5.75,-0.25));
#545=VECTOR('',#611,1.0);
#546=COLOUR_RGB('',0.498039215803146,0.498039215803146,0.498039215803146);
#547=CARTESIAN_POINT('',(-2.59625121419239E-15,6.0,42.4));
#548=CARTESIAN_POINT('',(-2.03291368658461E-15,6.0,21.2));
#549=VECTOR('',#612,1.0);
#550=CARTESIAN_POINT('',(-1.86146313470398E-15,-6.0,42.4));
#551=AXIS2_PLACEMENT_3D('',#613,#614,#615);
#552=CARTESIAN_POINT('',(-5.63337527607783E-16,-6.0,21.2));
#553=VECTOR('',#616,1.0);
#554=COLOUR_RGB('',0.498039215803146,0.498039215803146,0.498039215803146);
#555=CARTESIAN_POINT('',(-2.75545529808154E-15,3.40000000000001,45.0));
#556=CARTESIAN_POINT('',(-3.25143725173622E-15,4.7,43.7));
#557=VECTOR('',#617,1.0);
#558=CARTESIAN_POINT('',(-2.33907538637144E-15,-3.40000000000001,45.0));
#559=AXIS2_PLACEMENT_3D('',#618,#619,#620);
#560=CARTESIAN_POINT('',(-2.10026926053771E-15,-4.7,43.7));
#561=VECTOR('',#621,1.0);
#562=COLOUR_RGB('',0.498039215803146,0.498039215803146,0.498039215803146);
#563=AXIS2_PLACEMENT_3D('',#622,#623,#624);
#564=COLOUR_RGB('',0.498039215803146,0.498039215803146,0.498039215803146);
#565=AXIS2_PLACEMENT_3D('',#625,#626,#627);
#566=COLOUR_RGB('',0.498039215803146,0.498039215803146,0.498039215803146);
#567=AXIS2_PLACEMENT_3D('',#628,#629,#630);
#568=COLOUR_RGB('',0.498039215803146,0.498039215803146,0.498039215803146);
#569=AXIS2_PLACEMENT_3D('',#631,#632,#633);
#570=COLOUR_RGB('',0.498039215803146,0.498039215803146,0.498039215803146);
#571=AXIS2_PLACEMENT_3D('',#634,#635,#636);
#572=COLOUR_RGB('',0.498039215803146,0.498039215803146,0.498039215803146);
#573=COLOUR_RGB('',0.800000011920929,0.800000011920929,0.800000011920929);
#574=CARTESIAN_POINT('',(4.31381834999655E-15,5.5,-70.45));
#575=CARTESIAN_POINT('',(4.3474961369731E-15,5.18245735194571,-71.0));
#576=CARTESIAN_POINT('',(3.67654538333041E-15,5.34122867597285,-70.725));
#577=VECTOR('',#637,1.0);
#578=CARTESIAN_POINT('',(4.9873740895276E-15,-5.5,-70.45));
#579=AXIS2_PLACEMENT_3D('',#638,#639,#640);
#580=CARTESIAN_POINT('',(4.9821641177509E-15,-5.1824573519457,-71.0));
#581=CARTESIAN_POINT('',(4.98476910363925E-15,-5.34122867597285,-70.725));
#582=VECTOR('',#641,1.0);
#583=AXIS2_PLACEMENT_3D('',#642,#643,#644);
#584=COLOUR_RGB('',0.800000011920929,0.800000011920929,0.800000011920929);
#585=CARTESIAN_POINT('',(1.22464679914735E-16,5.5,-2.0));
#586=CARTESIAN_POINT('',(1.5445857754246E-15,5.5,-36.225));
#587=VECTOR('',#645,1.0);
#588=CARTESIAN_POINT('',(7.96020419445779E-16,-5.5,-2.0));
#589=AXIS2_PLACEMENT_3D('',#646,#647,#648);
#590=CARTESIAN_POINT('',(2.89169725448669E-15,-5.5,-36.225));
#591=VECTOR('',#649,1.0);
#592=COLOUR_RGB('',0.800000011920929,0.800000011920929,0.800000011920929);
#593=AXIS2_PLACEMENT_3D('',#650,#651,#652);
#594=AXIS2_PLACEMENT_3D('',#653,#654,#655);
#595=COLOUR_RGB('',0.800000011920929,0.800000011920929,0.800000011920929);
#596=AXIS2_PLACEMENT_3D('',#656,#657,#658);
#597=COLOUR_RGB('',0.800000011920929,0.800000011920929,0.800000011920929);
#598=COLOUR_RGB('',0.800000011920929,0.800000011920929,0.800000011920929);
#599=DIRECTION('',(6.12323399573677E-17,0.0,-1.0));
#600=CARTESIAN_POINT('',(3.06161699786838E-17,0.0,-0.5));
#601=DIRECTION('',(6.12323399573677E-17,0.0,-1.0));
#602=DIRECTION('',(0.0,1.0,0.0));
#603=DIRECTION('',(-6.12323399573677E-17,-0.0,1.0));
#604=CARTESIAN_POINT('',(1.22464679914735E-16,0.0,-2.0));
#605=DIRECTION('',(6.12323399573677E-17,0.0,-1.0));
#606=DIRECTION('',(0.0,1.0,0.0));
#607=DIRECTION('',(1.29893408435324E-16,-0.707106781186547,-0.707106781186548));
#608=CARTESIAN_POINT('',(0.0,0.0,0.0));
#609=DIRECTION('',(6.12323399573676E-17,0.0,-1.0));
#610=DIRECTION('',(0.0,1.0,0.0));
#611=DIRECTION('',(4.32978028117746E-17,-0.707106781186547,0.707106781186548));
#612=DIRECTION('',(6.12323399573676E-17,0.0,-1.0));
#613=CARTESIAN_POINT('',(-2.59625121419239E-15,0.0,42.4));
#614=DIRECTION('',(6.12323399573676E-17,0.0,-1.0));
#615=DIRECTION('',(0.0,1.0,0.0));
#616=DIRECTION('',(-6.12323399573676E-17,-0.0,1.0));
#617=DIRECTION('',(-4.32978028117746E-17,0.707106781186548,-0.707106781186548));
#618=CARTESIAN_POINT('',(-2.75545529808154E-15,0.0,45.0));
#619=DIRECTION('',(6.12323399573677E-17,0.0,-1.0));
#620=DIRECTION('',(0.0,1.0,0.0));
#621=DIRECTION('',(-1.29893408435324E-16,0.707106781186548,0.707106781186548));
#622=CARTESIAN_POINT('',(-2.75545529808154E-15,0.0,45.0));
#623=DIRECTION('',(6.12323399573677E-17,0.0,-1.0));
#624=DIRECTION('',(0.0,1.0,0.0));
#625=CARTESIAN_POINT('',(-2.59625121419239E-15,0.0,42.4));
#626=DIRECTION('',(6.12323399573676E-17,0.0,-1.0));
#627=DIRECTION('',(0.0,1.0,0.0));
#628=CARTESIAN_POINT('',(0.0,0.0,0.0));
#629=DIRECTION('',(6.12323399573676E-17,0.0,-1.0));
#630=DIRECTION('',(0.0,1.0,0.0));
#631=CARTESIAN_POINT('',(3.06161699786838E-17,0.0,-0.5));
#632=DIRECTION('',(6.12323399573677E-17,0.0,-1.0));
#633=DIRECTION('',(0.0,1.0,0.0));
#634=CARTESIAN_POINT('',(1.22464679914735E-16,0.0,-2.0));
#635=DIRECTION('',(6.12323399573677E-17,0.0,-1.0));
#636=DIRECTION('',(0.0,1.0,0.0));
#637=DIRECTION('',(1.14261101893613E-16,-0.500000000000002,-0.866025403784438));
#638=CARTESIAN_POINT('',(4.31381834999655E-15,0.0,-70.45));
#639=DIRECTION('',(6.12323399573677E-17,0.0,-1.0));
#640=DIRECTION('',(0.0,1.0,0.0));
#641=DIRECTION('',(8.20357802112261E-18,-0.500000000000002,0.866025403784438));
#642=CARTESIAN_POINT('',(4.3474961369731E-15,0.0,-71.0));
#643=DIRECTION('',(6.12323399573677E-17,0.0,-1.0));
#644=DIRECTION('',(0.0,1.0,0.0));
#645=DIRECTION('',(6.12323399573677E-17,0.0,-1.0));
#646=CARTESIAN_POINT('',(1.22464679914735E-16,0.0,-2.0));
#647=DIRECTION('',(6.12323399573677E-17,0.0,-1.0));
#648=DIRECTION('',(0.0,1.0,0.0));
#649=DIRECTION('',(-6.12323399573677E-17,-0.0,1.0));
#650=CARTESIAN_POINT('',(4.31381834999655E-15,0.0,-70.45));
#651=DIRECTION('',(6.12323399573677E-17,0.0,-1.0));
#652=DIRECTION('',(0.0,1.0,0.0));
#653=CARTESIAN_POINT('',(1.22464679914735E-16,0.0,-2.0));
#654=DIRECTION('',(6.12323399573677E-17,0.0,-1.0));
#655=DIRECTION('',(0.0,1.0,0.0));
#656=CARTESIAN_POINT('',(4.3474961369731E-15,0.0,-71.0));
#657=DIRECTION('',(6.12323399573677E-17,0.0,-1.0));
#658=DIRECTION('',(0.0,1.0,0.0));
#659=DIRECTION('',(0.0,0.0,1.0));
#660=DIRECTION('',(1.0,0.0,0.0));
#661=CARTESIAN_POINT('',(0.0,0.0,45.000000));
#662=AXIS2_PLACEMENT_3D('PCS', #661,#659,#660);
#663=CARTESIAN_POINT('',(0.0,0.0,0.000000));
#664=AXIS2_PLACEMENT_3D('MCS', #663,#659,#660);
#665=CARTESIAN_POINT('',(0.0,0.0,-71.000000));
#666=AXIS2_PLACEMENT_3D('CIP', #665,#659,#660);
ENDSEC;
END-ISO-10303-21;
