ISO-10303-21;
HEADER;
FILE_DESCRIPTION(('STEP AP214'),'1');
FILE_NAME('607409479-000-01-E43.stp','2022-10-04T16:07:28',(' '),(' '),'Spatial InterOp 3D',' ',' ');
FILE_SCHEMA(('AUTOMOTIVE_DESIGN { 1 0 10303 214 1 1 1 1 }'));
ENDSEC;
DATA;
#1=MECHANICAL_DESIGN_GEOMETRIC_PRESENTATION_REPRESENTATION(' ',(#12,#13,#14,#15,#16,#17,#18,#19,#20,#21,#22,#23,#24,#25,#26,#27,#28),#8);
#2=PRODUCT_DEFINITION_CONTEXT('',#29,'design');
#3=APPLICATION_PROTOCOL_DEFINITION('INTERNATIONAL STANDARD','automotive_design',1994,#29);
#4=PRODUCT_CATEGORY_RELATIONSHIP('NONE','NONE',#30,#31);
#5=SHAPE_DEFINITION_REPRESENTATION(#32,#33);
#6=SHAPE_DEFINITION_REPRESENTATION(#32,#34);
#7=SHAPE_DEFINITION_REPRESENTATION(#32,#35);
#8= (GEOMETRIC_REPRESENTATION_CONTEXT(3)GLOBAL_UNCERTAINTY_ASSIGNED_CONTEXT((#38))GLOBAL_UNIT_ASSIGNED_CONTEXT((#40,#41,#42))REPRESENTATION_CONTEXT('NONE','WORKSPACE'));
#12=STYLED_ITEM('',(#44),#45);
#13=STYLED_ITEM('',(#46),#47);
#14=STYLED_ITEM('',(#48),#49);
#15=STYLED_ITEM('',(#50),#51);
#16=STYLED_ITEM('',(#52),#53);
#17=STYLED_ITEM('',(#54),#55);
#18=STYLED_ITEM('',(#56),#57);
#19=STYLED_ITEM('',(#58),#59);
#20=STYLED_ITEM('',(#60),#61);
#21=STYLED_ITEM('',(#62),#63);
#22=STYLED_ITEM('',(#64),#65);
#23=STYLED_ITEM('',(#66),#67);
#24=STYLED_ITEM('',(#68),#69);
#25=STYLED_ITEM('',(#70),#71);
#26=STYLED_ITEM('',(#72),#73);
#27=STYLED_ITEM('',(#74),#75);
#28=STYLED_ITEM('',(#76),#77);
#29=APPLICATION_CONTEXT(' ');
#30=PRODUCT_CATEGORY('part','NONE');
#31=PRODUCT_RELATED_PRODUCT_CATEGORY('detail',' ',(#78));
#32=PRODUCT_DEFINITION_SHAPE('NONE','NONE',#79);
#33=ADVANCED_BREP_SHAPE_REPRESENTATION('1',(#80,#81),#8);
#34=ADVANCED_BREP_SHAPE_REPRESENTATION('2',(#82,#83),#8);
#35=GEOMETRICALLY_BOUNDED_SURFACE_SHAPE_REPRESENTATION('3',(#84,#85),#8);
#38=UNCERTAINTY_MEASURE_WITH_UNIT(LENGTH_MEASURE(1.0E-06),#40,'','');
#40= (CONVERSION_BASED_UNIT('MILLIMETRE',#88)LENGTH_UNIT()NAMED_UNIT(#91));
#41= (NAMED_UNIT(#93)PLANE_ANGLE_UNIT()SI_UNIT($,.RADIAN.));
#42= (NAMED_UNIT(#93)SOLID_ANGLE_UNIT()SI_UNIT($,.STERADIAN.));
#44=PRESENTATION_STYLE_ASSIGNMENT((#99));
#45=COMPOSITE_CURVE('',(#100),.U.);
#46=PRESENTATION_STYLE_ASSIGNMENT((#101));
#47=COMPOSITE_CURVE('',(#102),.U.);
#48=PRESENTATION_STYLE_ASSIGNMENT((#103));
#49=ADVANCED_FACE('',(#104),#105,.T.);
#50=PRESENTATION_STYLE_ASSIGNMENT((#106));
#51=ADVANCED_FACE('',(#107),#108,.T.);
#52=PRESENTATION_STYLE_ASSIGNMENT((#109));
#53=ADVANCED_FACE('',(#110),#111,.T.);
#54=PRESENTATION_STYLE_ASSIGNMENT((#112));
#55=ADVANCED_FACE('',(#113),#114,.T.);
#56=PRESENTATION_STYLE_ASSIGNMENT((#115));
#57=ADVANCED_FACE('',(#116),#117,.T.);
#58=PRESENTATION_STYLE_ASSIGNMENT((#118));
#59=ADVANCED_FACE('',(#119),#120,.T.);
#60=PRESENTATION_STYLE_ASSIGNMENT((#121));
#61=ADVANCED_FACE('',(#122),#123,.T.);
#62=PRESENTATION_STYLE_ASSIGNMENT((#124));
#63=ADVANCED_FACE('',(#125),#126,.T.);
#64=PRESENTATION_STYLE_ASSIGNMENT((#127));
#65=ADVANCED_FACE('',(#128),#129,.T.);
#66=PRESENTATION_STYLE_ASSIGNMENT((#130));
#67=ADVANCED_FACE('',(#131),#132,.T.);
#68=PRESENTATION_STYLE_ASSIGNMENT((#133));
#69=ADVANCED_FACE('',(#134),#135,.T.);
#70=PRESENTATION_STYLE_ASSIGNMENT((#136));
#71=ADVANCED_FACE('',(#137),#138,.T.);
#72=PRESENTATION_STYLE_ASSIGNMENT((#139));
#73=ADVANCED_FACE('',(#140,#141),#142,.T.);
#74=PRESENTATION_STYLE_ASSIGNMENT((#143));
#75=ADVANCED_FACE('',(#144),#145,.T.);
#76=PRESENTATION_STYLE_ASSIGNMENT((#146));
#77=ADVANCED_FACE('',(#147),#148,.T.);
#78=PRODUCT('1','','PART--DESC',(#149));
#79=PRODUCT_DEFINITION('','NONE',#150,#2);
#80=MANIFOLD_SOLID_BREP('1',#151);
#81=AXIS2_PLACEMENT_3D('',#152,#153,#154);
#82=MANIFOLD_SOLID_BREP('2',#155);
#83=AXIS2_PLACEMENT_3D('',#156,#157,#158);
#84=GEOMETRIC_SET('3',(#45,#47));
#85=AXIS2_PLACEMENT_3D('',#159,#160,#161);
#88=LENGTH_MEASURE_WITH_UNIT(LENGTH_MEASURE(1.0),#162);
#91=DIMENSIONAL_EXPONENTS(1.0,0.0,0.0,0.0,0.0,0.0,0.0);
#93=DIMENSIONAL_EXPONENTS(0.0,0.0,0.0,0.0,0.0,0.0,0.0);
#99=CURVE_STYLE('',#163,POSITIVE_LENGTH_MEASURE(1.0E-06),#164);
#100=COMPOSITE_CURVE_SEGMENT(.CONTINUOUS.,.T.,#165);
#101=CURVE_STYLE('',#166,POSITIVE_LENGTH_MEASURE(1.0E-06),#167);
#102=COMPOSITE_CURVE_SEGMENT(.CONTINUOUS.,.T.,#168);
#103=SURFACE_STYLE_USAGE(.BOTH.,#169);
#104=FACE_OUTER_BOUND('',#170,.T.);
#105=TOROIDAL_SURFACE('',#171,2.5,0.5);
#106=SURFACE_STYLE_USAGE(.BOTH.,#172);
#107=FACE_OUTER_BOUND('',#173,.T.);
#108=CYLINDRICAL_SURFACE('',#174,3.0);
#109=SURFACE_STYLE_USAGE(.BOTH.,#175);
#110=FACE_OUTER_BOUND('',#176,.T.);
#111=PLANE('',#177);
#112=SURFACE_STYLE_USAGE(.BOTH.,#178);
#113=FACE_OUTER_BOUND('',#179,.T.);
#114=CYLINDRICAL_SURFACE('',#180,3.0);
#115=SURFACE_STYLE_USAGE(.BOTH.,#181);
#116=FACE_OUTER_BOUND('',#182,.T.);
#117=TOROIDAL_SURFACE('',#183,2.5,0.5);
#118=SURFACE_STYLE_USAGE(.BOTH.,#184);
#119=FACE_OUTER_BOUND('',#185,.T.);
#120=PLANE('',#186);
#121=SURFACE_STYLE_USAGE(.BOTH.,#187);
#122=FACE_OUTER_BOUND('',#188,.T.);
#123=CYLINDRICAL_SURFACE('',#189,2.95);
#124=SURFACE_STYLE_USAGE(.BOTH.,#190);
#125=FACE_OUTER_BOUND('',#191,.T.);
#126=CYLINDRICAL_SURFACE('',#192,3.0);
#127=SURFACE_STYLE_USAGE(.BOTH.,#193);
#128=FACE_OUTER_BOUND('',#194,.T.);
#129=CONICAL_SURFACE('',#195,2.35,0.78539816339745);
#130=SURFACE_STYLE_USAGE(.BOTH.,#196);
#131=FACE_OUTER_BOUND('',#197,.T.);
#132=PLANE('',#198);
#133=SURFACE_STYLE_USAGE(.BOTH.,#199);
#134=FACE_OUTER_BOUND('',#200,.T.);
#135=CONICAL_SURFACE('',#201,2.35,0.78539816339745);
#136=SURFACE_STYLE_USAGE(.BOTH.,#202);
#137=FACE_OUTER_BOUND('',#203,.T.);
#138=CYLINDRICAL_SURFACE('',#204,3.0);
#139=SURFACE_STYLE_USAGE(.BOTH.,#205);
#140=FACE_BOUND('',#206,.T.);
#141=FACE_OUTER_BOUND('',#207,.T.);
#142=PLANE('',#208);
#143=SURFACE_STYLE_USAGE(.BOTH.,#209);
#144=FACE_OUTER_BOUND('',#210,.T.);
#145=CYLINDRICAL_SURFACE('',#211,2.95);
#146=SURFACE_STYLE_USAGE(.BOTH.,#212);
#147=FACE_OUTER_BOUND('',#213,.T.);
#148=PLANE('',#214);
#149=PRODUCT_CONTEXT('',#29,'mechanical');
#150=PRODUCT_DEFINITION_FORMATION_WITH_SPECIFIED_SOURCE(' ','NONE',#78,.NOT_KNOWN.);
#151=CLOSED_SHELL('',(#49,#51,#53,#55,#57,#59));
#152=CARTESIAN_POINT('',(0.0,0.0,0.0));
#153=DIRECTION('',(0.0,0.0,1.0));
#154=DIRECTION('',(1.0,0.0,0.0));
#155=CLOSED_SHELL('',(#61,#63,#65,#67,#69,#71,#73,#75,#77));
#156=CARTESIAN_POINT('',(0.0,0.0,0.0));
#157=DIRECTION('',(0.0,0.0,1.0));
#158=DIRECTION('',(1.0,0.0,0.0));
#159=CARTESIAN_POINT('',(0.0,0.0,0.0));
#160=DIRECTION('',(0.0,0.0,1.0));
#161=DIRECTION('',(1.0,0.0,0.0));
#162= (NAMED_UNIT(#91)LENGTH_UNIT()SI_UNIT(.MILLI.,.METRE.));
#163=DRAUGHTING_PRE_DEFINED_CURVE_FONT('continuous');
#164=COLOUR_RGB('',0.0,1.0,0.0);
#165=TRIMMED_CURVE('',#216,(PARAMETER_VALUE(0.0)),(PARAMETER_VALUE(3.0)),.T.,.UNSPECIFIED.);
#166=DRAUGHTING_PRE_DEFINED_CURVE_FONT('continuous');
#167=COLOUR_RGB('',0.0,1.0,0.0);
#168=TRIMMED_CURVE('',#217,(PARAMETER_VALUE(0.0)),(PARAMETER_VALUE(3.0)),.T.,.UNSPECIFIED.);
#169=SURFACE_SIDE_STYLE('',(#218));
#170=EDGE_LOOP('',(#219,#220,#221,#222,#223,#224));
#171=AXIS2_PLACEMENT_3D('',#225,#226,#227);
#172=SURFACE_SIDE_STYLE('',(#228));
#173=EDGE_LOOP('',(#229,#230,#231,#232,#233));
#174=AXIS2_PLACEMENT_3D('',#234,#235,#236);
#175=SURFACE_SIDE_STYLE('',(#237));
#176=EDGE_LOOP('',(#238,#239));
#177=AXIS2_PLACEMENT_3D('',#240,#241,#242);
#178=SURFACE_SIDE_STYLE('',(#243));
#179=EDGE_LOOP('',(#244,#245,#246,#247,#248));
#180=AXIS2_PLACEMENT_3D('',#249,#250,#251);
#181=SURFACE_SIDE_STYLE('',(#252));
#182=EDGE_LOOP('',(#253,#254,#255,#256,#257));
#183=AXIS2_PLACEMENT_3D('',#258,#259,#260);
#184=SURFACE_SIDE_STYLE('',(#261));
#185=EDGE_LOOP('',(#262,#263,#264));
#186=AXIS2_PLACEMENT_3D('',#265,#266,#267);
#187=SURFACE_SIDE_STYLE('',(#268));
#188=EDGE_LOOP('',(#269,#270,#271,#272));
#189=AXIS2_PLACEMENT_3D('',#273,#274,#275);
#190=SURFACE_SIDE_STYLE('',(#276));
#191=EDGE_LOOP('',(#277,#278,#279,#280));
#192=AXIS2_PLACEMENT_3D('',#281,#282,#283);
#193=SURFACE_SIDE_STYLE('',(#284));
#194=EDGE_LOOP('',(#285,#286,#287,#288));
#195=AXIS2_PLACEMENT_3D('',#289,#290,#291);
#196=SURFACE_SIDE_STYLE('',(#292));
#197=EDGE_LOOP('',(#293,#294));
#198=AXIS2_PLACEMENT_3D('',#295,#296,#297);
#199=SURFACE_SIDE_STYLE('',(#298));
#200=EDGE_LOOP('',(#299,#300,#301,#302));
#201=AXIS2_PLACEMENT_3D('',#303,#304,#305);
#202=SURFACE_SIDE_STYLE('',(#306));
#203=EDGE_LOOP('',(#307,#308,#309,#310));
#204=AXIS2_PLACEMENT_3D('',#311,#312,#313);
#205=SURFACE_SIDE_STYLE('',(#314));
#206=EDGE_LOOP('',(#315,#316));
#207=EDGE_LOOP('',(#317,#318));
#208=AXIS2_PLACEMENT_3D('',#319,#320,#321);
#209=SURFACE_SIDE_STYLE('',(#322));
#210=EDGE_LOOP('',(#323,#324,#325,#326));
#211=AXIS2_PLACEMENT_3D('',#327,#328,#329);
#212=SURFACE_SIDE_STYLE('',(#330));
#213=EDGE_LOOP('',(#331,#332));
#214=AXIS2_PLACEMENT_3D('',#333,#334,#335);
#216=LINE('',#336,#337);
#217=LINE('',#338,#339);
#218=SURFACE_STYLE_FILL_AREA(#340);
#219=ORIENTED_EDGE('',*,*,#341,.F.);
#220=ORIENTED_EDGE('',*,*,#342,.T.);
#221=ORIENTED_EDGE('',*,*,#343,.T.);
#222=ORIENTED_EDGE('',*,*,#344,.F.);
#223=ORIENTED_EDGE('',*,*,#345,.F.);
#224=ORIENTED_EDGE('',*,*,#346,.F.);
#225=CARTESIAN_POINT('',(1.80635402874235E-15,0.0,-29.5));
#226=DIRECTION('',(6.12323399573677E-17,0.0,-1.0));
#227=DIRECTION('',(-1.0,0.0,-6.12323399573677E-17));
#228=SURFACE_STYLE_FILL_AREA(#347);
#229=ORIENTED_EDGE('',*,*,#348,.F.);
#230=ORIENTED_EDGE('',*,*,#349,.T.);
#231=ORIENTED_EDGE('',*,*,#350,.F.);
#232=ORIENTED_EDGE('',*,*,#351,.F.);
#233=ORIENTED_EDGE('',*,*,#343,.F.);
#234=CARTESIAN_POINT('',(1.62878024286598E-15,0.0,-26.6));
#235=DIRECTION('',(6.12323399573676E-17,0.0,-1.0));
#236=DIRECTION('',(0.0,1.0,0.0));
#237=SURFACE_STYLE_FILL_AREA(#352);
#238=ORIENTED_EDGE('',*,*,#349,.F.);
#239=ORIENTED_EDGE('',*,*,#353,.F.);
#240=CARTESIAN_POINT('',(1.45120645698961E-15,1.5,-23.7));
#241=DIRECTION('',(-6.12323399573677E-17,0.0,1.0));
#242=DIRECTION('',(0.0,-1.0,0.0));
#243=SURFACE_STYLE_FILL_AREA(#354);
#244=ORIENTED_EDGE('',*,*,#348,.T.);
#245=ORIENTED_EDGE('',*,*,#342,.F.);
#246=ORIENTED_EDGE('',*,*,#355,.F.);
#247=ORIENTED_EDGE('',*,*,#350,.T.);
#248=ORIENTED_EDGE('',*,*,#353,.T.);
#249=CARTESIAN_POINT('',(1.62878024286598E-15,0.0,-26.6));
#250=DIRECTION('',(6.12323399573676E-17,0.0,-1.0));
#251=DIRECTION('',(0.0,1.0,0.0));
#252=SURFACE_STYLE_FILL_AREA(#356);
#253=ORIENTED_EDGE('',*,*,#341,.T.);
#254=ORIENTED_EDGE('',*,*,#357,.F.);
#255=ORIENTED_EDGE('',*,*,#344,.T.);
#256=ORIENTED_EDGE('',*,*,#351,.T.);
#257=ORIENTED_EDGE('',*,*,#355,.T.);
#258=CARTESIAN_POINT('',(1.80635402874235E-15,0.0,-29.5));
#259=DIRECTION('',(6.12323399573677E-17,0.0,-1.0));
#260=DIRECTION('',(-1.0,0.0,-6.12323399573677E-17));
#261=SURFACE_STYLE_FILL_AREA(#358);
#262=ORIENTED_EDGE('',*,*,#345,.T.);
#263=ORIENTED_EDGE('',*,*,#357,.T.);
#264=ORIENTED_EDGE('',*,*,#346,.T.);
#265=CARTESIAN_POINT('',(1.83697019872103E-15,1.25,-30.0));
#266=DIRECTION('',(6.12323399573677E-17,0.0,-1.0));
#267=DIRECTION('',(0.0,1.0,0.0));
#268=SURFACE_STYLE_FILL_AREA(#359);
#269=ORIENTED_EDGE('',*,*,#360,.F.);
#270=ORIENTED_EDGE('',*,*,#361,.T.);
#271=ORIENTED_EDGE('',*,*,#362,.F.);
#272=ORIENTED_EDGE('',*,*,#363,.F.);
#273=CARTESIAN_POINT('',(7.25603228494807E-16,0.0,-11.85));
#274=DIRECTION('',(6.12323399573677E-17,0.0,-1.0));
#275=DIRECTION('',(0.0,1.0,0.0));
#276=SURFACE_STYLE_FILL_AREA(#364);
#277=ORIENTED_EDGE('',*,*,#365,.F.);
#278=ORIENTED_EDGE('',*,*,#366,.T.);
#279=ORIENTED_EDGE('',*,*,#367,.F.);
#280=ORIENTED_EDGE('',*,*,#368,.F.);
#281=CARTESIAN_POINT('',(-1.33792662806848E-15,0.0,21.85));
#282=DIRECTION('',(6.12323399573676E-17,0.0,-1.0));
#283=DIRECTION('',(0.0,1.0,0.0));
#284=SURFACE_STYLE_FILL_AREA(#369);
#285=ORIENTED_EDGE('',*,*,#370,.F.);
#286=ORIENTED_EDGE('',*,*,#371,.T.);
#287=ORIENTED_EDGE('',*,*,#372,.F.);
#288=ORIENTED_EDGE('',*,*,#366,.F.);
#289=CARTESIAN_POINT('',(-2.71565427710926E-15,0.0,44.35));
#290=DIRECTION('',(6.12323399573677E-17,-0.0,-1.0));
#291=DIRECTION('',(0.0,1.0,0.0));
#292=SURFACE_STYLE_FILL_AREA(#373);
#293=ORIENTED_EDGE('',*,*,#371,.F.);
#294=ORIENTED_EDGE('',*,*,#374,.F.);
#295=CARTESIAN_POINT('',(-2.75545529808154E-15,0.85,45.0));
#296=DIRECTION('',(-6.12323399573677E-17,0.0,1.0));
#297=DIRECTION('',(0.0,-1.0,0.0));
#298=SURFACE_STYLE_FILL_AREA(#375);
#299=ORIENTED_EDGE('',*,*,#370,.T.);
#300=ORIENTED_EDGE('',*,*,#376,.F.);
#301=ORIENTED_EDGE('',*,*,#372,.T.);
#302=ORIENTED_EDGE('',*,*,#374,.T.);
#303=CARTESIAN_POINT('',(-2.71565427710926E-15,0.0,44.35));
#304=DIRECTION('',(6.12323399573677E-17,-0.0,-1.0));
#305=DIRECTION('',(0.0,1.0,0.0));
#306=SURFACE_STYLE_FILL_AREA(#377);
#307=ORIENTED_EDGE('',*,*,#365,.T.);
#308=ORIENTED_EDGE('',*,*,#378,.F.);
#309=ORIENTED_EDGE('',*,*,#367,.T.);
#310=ORIENTED_EDGE('',*,*,#376,.T.);
#311=CARTESIAN_POINT('',(-1.33792662806848E-15,0.0,21.85));
#312=DIRECTION('',(6.12323399573676E-17,0.0,-1.0));
#313=DIRECTION('',(0.0,1.0,0.0));
#314=SURFACE_STYLE_FILL_AREA(#379);
#315=ORIENTED_EDGE('',*,*,#361,.F.);
#316=ORIENTED_EDGE('',*,*,#380,.F.);
#317=ORIENTED_EDGE('',*,*,#368,.T.);
#318=ORIENTED_EDGE('',*,*,#378,.T.);
#319=CARTESIAN_POINT('',(0.0,2.975,0.0));
#320=DIRECTION('',(6.12323399573677E-17,0.0,-1.0));
#321=DIRECTION('',(0.0,1.0,0.0));
#322=SURFACE_STYLE_FILL_AREA(#381);
#323=ORIENTED_EDGE('',*,*,#360,.T.);
#324=ORIENTED_EDGE('',*,*,#382,.F.);
#325=ORIENTED_EDGE('',*,*,#362,.T.);
#326=ORIENTED_EDGE('',*,*,#380,.T.);
#327=CARTESIAN_POINT('',(7.25603228494807E-16,0.0,-11.85));
#328=DIRECTION('',(6.12323399573677E-17,0.0,-1.0));
#329=DIRECTION('',(0.0,1.0,0.0));
#330=SURFACE_STYLE_FILL_AREA(#383);
#331=ORIENTED_EDGE('',*,*,#363,.T.);
#332=ORIENTED_EDGE('',*,*,#382,.T.);
#333=CARTESIAN_POINT('',(1.45120645698961E-15,1.475,-23.7));
#334=DIRECTION('',(6.12323399573677E-17,0.0,-1.0));
#335=DIRECTION('',(0.0,1.0,0.0));
#336=CARTESIAN_POINT('',(0.0,3.0,0.0));
#337=VECTOR('',#384,1.0);
#338=CARTESIAN_POINT('',(0.0,-3.0,0.0));
#339=VECTOR('',#385,1.0);
#340=FILL_AREA_STYLE('',(#386));
#341=EDGE_CURVE('',#387,#388,#389,.T.);
#342=EDGE_CURVE('',#387,#390,#391,.T.);
#343=EDGE_CURVE('',#390,#392,#393,.T.);
#344=EDGE_CURVE('',#394,#392,#395,.T.);
#345=EDGE_CURVE('',#396,#394,#397,.T.);
#346=EDGE_CURVE('',#388,#396,#398,.T.);
#347=FILL_AREA_STYLE('',(#399));
#348=EDGE_CURVE('',#400,#390,#401,.T.);
#349=EDGE_CURVE('',#400,#402,#403,.T.);
#350=EDGE_CURVE('',#404,#402,#405,.T.);
#351=EDGE_CURVE('',#392,#404,#406,.T.);
#352=FILL_AREA_STYLE('',(#407));
#353=EDGE_CURVE('',#402,#400,#408,.T.);
#354=FILL_AREA_STYLE('',(#409));
#355=EDGE_CURVE('',#404,#387,#410,.T.);
#356=FILL_AREA_STYLE('',(#411));
#357=EDGE_CURVE('',#394,#388,#412,.T.);
#358=FILL_AREA_STYLE('',(#413));
#359=FILL_AREA_STYLE('',(#414));
#360=EDGE_CURVE('',#415,#416,#417,.T.);
#361=EDGE_CURVE('',#415,#418,#419,.T.);
#362=EDGE_CURVE('',#420,#418,#421,.T.);
#363=EDGE_CURVE('',#416,#420,#422,.T.);
#364=FILL_AREA_STYLE('',(#423));
#365=EDGE_CURVE('',#424,#425,#426,.T.);
#366=EDGE_CURVE('',#424,#427,#428,.T.);
#367=EDGE_CURVE('',#429,#427,#430,.T.);
#368=EDGE_CURVE('',#425,#429,#431,.T.);
#369=FILL_AREA_STYLE('',(#432));
#370=EDGE_CURVE('',#433,#424,#434,.T.);
#371=EDGE_CURVE('',#433,#435,#436,.T.);
#372=EDGE_CURVE('',#427,#435,#437,.T.);
#373=FILL_AREA_STYLE('',(#438));
#374=EDGE_CURVE('',#435,#433,#439,.T.);
#375=FILL_AREA_STYLE('',(#440));
#376=EDGE_CURVE('',#427,#424,#441,.T.);
#377=FILL_AREA_STYLE('',(#442));
#378=EDGE_CURVE('',#429,#425,#443,.T.);
#379=FILL_AREA_STYLE('',(#444));
#380=EDGE_CURVE('',#418,#415,#445,.T.);
#381=FILL_AREA_STYLE('',(#446));
#382=EDGE_CURVE('',#420,#416,#447,.T.);
#383=FILL_AREA_STYLE('',(#448));
#384=DIRECTION('',(0.0,-1.0,0.0));
#385=DIRECTION('',(0.0,1.0,0.0));
#386=FILL_AREA_STYLE_COLOUR('',#449);
#387=VERTEX_POINT('',#450);
#388=VERTEX_POINT('',#451);
#389=CIRCLE('',#452,0.5);
#390=VERTEX_POINT('',#453);
#391=CIRCLE('',#454,3.0);
#392=VERTEX_POINT('',#455);
#393=CIRCLE('',#456,3.0);
#394=VERTEX_POINT('',#457);
#395=CIRCLE('',#458,0.5);
#396=VERTEX_POINT('',#459);
#397=CIRCLE('',#460,2.5);
#398=CIRCLE('',#461,2.5);
#399=FILL_AREA_STYLE_COLOUR('',#462);
#400=VERTEX_POINT('',#463);
#401=LINE('',#464,#465);
#402=VERTEX_POINT('',#466);
#403=CIRCLE('',#467,3.0);
#404=VERTEX_POINT('',#468);
#405=LINE('',#469,#470);
#406=CIRCLE('',#471,3.0);
#407=FILL_AREA_STYLE_COLOUR('',#472);
#408=CIRCLE('',#473,3.0);
#409=FILL_AREA_STYLE_COLOUR('',#474);
#410=CIRCLE('',#475,3.0);
#411=FILL_AREA_STYLE_COLOUR('',#476);
#412=CIRCLE('',#477,2.5);
#413=FILL_AREA_STYLE_COLOUR('',#478);
#414=FILL_AREA_STYLE_COLOUR('',#479);
#415=VERTEX_POINT('',#480);
#416=VERTEX_POINT('',#481);
#417=LINE('',#482,#483);
#418=VERTEX_POINT('',#484);
#419=CIRCLE('',#485,2.95);
#420=VERTEX_POINT('',#486);
#421=LINE('',#487,#488);
#422=CIRCLE('',#489,2.95);
#423=FILL_AREA_STYLE_COLOUR('',#490);
#424=VERTEX_POINT('',#491);
#425=VERTEX_POINT('',#492);
#426=LINE('',#493,#494);
#427=VERTEX_POINT('',#495);
#428=CIRCLE('',#496,3.0);
#429=VERTEX_POINT('',#497);
#430=LINE('',#498,#499);
#431=CIRCLE('',#500,3.0);
#432=FILL_AREA_STYLE_COLOUR('',#501);
#433=VERTEX_POINT('',#502);
#434=LINE('',#503,#504);
#435=VERTEX_POINT('',#505);
#436=CIRCLE('',#506,1.7);
#437=LINE('',#507,#508);
#438=FILL_AREA_STYLE_COLOUR('',#509);
#439=CIRCLE('',#510,1.7);
#440=FILL_AREA_STYLE_COLOUR('',#511);
#441=CIRCLE('',#512,3.0);
#442=FILL_AREA_STYLE_COLOUR('',#513);
#443=CIRCLE('',#514,3.0);
#444=FILL_AREA_STYLE_COLOUR('',#515);
#445=CIRCLE('',#516,2.95);
#446=FILL_AREA_STYLE_COLOUR('',#517);
#447=CIRCLE('',#518,2.95);
#448=FILL_AREA_STYLE_COLOUR('',#519);
#449=COLOUR_RGB('',0.800000011920929,0.800000011920929,0.800000011920929);
#450=CARTESIAN_POINT('',(-3.0,-3.67394039744206E-16,-29.5));
#451=CARTESIAN_POINT('',(-2.5,-3.06161699786838E-16,-30.0));
#452=AXIS2_PLACEMENT_3D('',#520,#521,#522);
#453=CARTESIAN_POINT('',(1.80635402874235E-15,3.0,-29.5));
#454=AXIS2_PLACEMENT_3D('',#523,#524,#525);
#455=CARTESIAN_POINT('',(3.0,3.67394039744206E-16,-29.5));
#456=AXIS2_PLACEMENT_3D('',#526,#527,#528);
#457=CARTESIAN_POINT('',(2.5,3.06161699786838E-16,-30.0));
#458=AXIS2_PLACEMENT_3D('',#529,#530,#531);
#459=CARTESIAN_POINT('',(1.83697019872103E-15,2.5,-30.0));
#460=AXIS2_PLACEMENT_3D('',#532,#533,#534);
#461=AXIS2_PLACEMENT_3D('',#535,#536,#537);
#462=COLOUR_RGB('',0.800000011920929,0.800000011920929,0.800000011920929);
#463=CARTESIAN_POINT('',(1.45120645698961E-15,3.0,-23.7));
#464=CARTESIAN_POINT('',(1.26138620312177E-15,3.0,-26.6));
#465=VECTOR('',#538,1.0);
#466=CARTESIAN_POINT('',(1.81860049673382E-15,-3.0,-23.7));
#467=AXIS2_PLACEMENT_3D('',#539,#540,#541);
#468=CARTESIAN_POINT('',(2.17374806848655E-15,-3.0,-29.5));
#469=CARTESIAN_POINT('',(1.99617428261019E-15,-3.0,-26.6));
#470=VECTOR('',#542,1.0);
#471=AXIS2_PLACEMENT_3D('',#543,#544,#545);
#472=COLOUR_RGB('',0.800000011920929,0.800000011920929,0.800000011920929);
#473=AXIS2_PLACEMENT_3D('',#546,#547,#548);
#474=COLOUR_RGB('',0.800000011920929,0.800000011920929,0.800000011920929);
#475=AXIS2_PLACEMENT_3D('',#549,#550,#551);
#476=COLOUR_RGB('',0.800000011920929,0.800000011920929,0.800000011920929);
#477=AXIS2_PLACEMENT_3D('',#552,#553,#554);
#478=COLOUR_RGB('',0.800000011920929,0.800000011920929,0.800000011920929);
#479=COLOUR_RGB('',0.498039215803146,0.498039215803146,0.498039215803146);
#480=CARTESIAN_POINT('',(0.0,2.95,0.0));
#481=CARTESIAN_POINT('',(1.45120645698961E-15,2.95,-23.7));
#482=CARTESIAN_POINT('',(3.64332422746338E-16,2.95,-11.85));
#483=VECTOR('',#555,1.0);
#484=CARTESIAN_POINT('',(3.61270805748469E-16,-2.95,2.21214567942624E-32));
#485=AXIS2_PLACEMENT_3D('',#556,#557,#558);
#486=CARTESIAN_POINT('',(1.81247726273808E-15,-2.95,-23.7));
#487=CARTESIAN_POINT('',(1.08687403424328E-15,-2.95,-11.85));
#488=VECTOR('',#559,1.0);
#489=AXIS2_PLACEMENT_3D('',#560,#561,#562);
#490=COLOUR_RGB('',0.498039215803146,0.498039215803146,0.498039215803146);
#491=CARTESIAN_POINT('',(-2.67585325613697E-15,3.0,43.7));
#492=CARTESIAN_POINT('',(0.0,3.0,0.0));
#493=CARTESIAN_POINT('',(-1.70532066781269E-15,3.0,21.85));
#494=VECTOR('',#563,1.0);
#495=CARTESIAN_POINT('',(-2.30845921639276E-15,-3.0,43.7));
#496=AXIS2_PLACEMENT_3D('',#564,#565,#566);
#497=CARTESIAN_POINT('',(3.67394039744205E-16,-3.0,2.24963967399278E-32));
#498=CARTESIAN_POINT('',(-9.70532588324278E-16,-3.0,21.85));
#499=VECTOR('',#567,1.0);
#500=AXIS2_PLACEMENT_3D('',#568,#569,#570);
#501=COLOUR_RGB('',0.498039215803146,0.498039215803146,0.498039215803146);
#502=CARTESIAN_POINT('',(-2.75545529808154E-15,1.7,45.0));
#503=CARTESIAN_POINT('',(-3.00344627490888E-15,2.35,44.35));
#504=VECTOR('',#571,1.0);
#505=CARTESIAN_POINT('',(-2.54726534222649E-15,-1.7,45.0));
#506=AXIS2_PLACEMENT_3D('',#572,#573,#574);
#507=CARTESIAN_POINT('',(-2.42786227930963E-15,-2.35,44.35));
#508=VECTOR('',#575,1.0);
#509=COLOUR_RGB('',0.498039215803146,0.498039215803146,0.498039215803146);
#510=AXIS2_PLACEMENT_3D('',#576,#577,#578);
#511=COLOUR_RGB('',0.498039215803146,0.498039215803146,0.498039215803146);
#512=AXIS2_PLACEMENT_3D('',#579,#580,#581);
#513=COLOUR_RGB('',0.498039215803146,0.498039215803146,0.498039215803146);
#514=AXIS2_PLACEMENT_3D('',#582,#583,#584);
#515=COLOUR_RGB('',0.498039215803146,0.498039215803146,0.498039215803146);
#516=AXIS2_PLACEMENT_3D('',#585,#586,#587);
#517=COLOUR_RGB('',0.498039215803146,0.498039215803146,0.498039215803146);
#518=AXIS2_PLACEMENT_3D('',#588,#589,#590);
#519=COLOUR_RGB('',0.498039215803146,0.498039215803146,0.498039215803146);
#520=CARTESIAN_POINT('',(-2.5,-3.06161699786838E-16,-29.5));
#521=DIRECTION('',(1.22464679914735E-16,-1.0,7.49879891330929E-33));
#522=DIRECTION('',(-1.0,-1.22464679914735E-16,-6.12323399573677E-17));
#523=CARTESIAN_POINT('',(1.80635402874235E-15,0.0,-29.5));
#524=DIRECTION('',(6.12323399573676E-17,0.0,-1.0));
#525=DIRECTION('',(0.0,1.0,0.0));
#526=CARTESIAN_POINT('',(1.80635402874235E-15,0.0,-29.5));
#527=DIRECTION('',(6.12323399573676E-17,0.0,-1.0));
#528=DIRECTION('',(0.0,1.0,0.0));
#529=CARTESIAN_POINT('',(2.5,3.06161699786838E-16,-29.5));
#530=DIRECTION('',(1.22464679914735E-16,-1.0,7.49879891330929E-33));
#531=DIRECTION('',(1.0,1.22464679914735E-16,6.12323399573677E-17));
#532=CARTESIAN_POINT('',(1.83697019872103E-15,0.0,-30.0));
#533=DIRECTION('',(6.12323399573677E-17,0.0,-1.0));
#534=DIRECTION('',(0.0,1.0,0.0));
#535=CARTESIAN_POINT('',(1.83697019872103E-15,0.0,-30.0));
#536=DIRECTION('',(6.12323399573677E-17,0.0,-1.0));
#537=DIRECTION('',(0.0,1.0,0.0));
#538=DIRECTION('',(6.12323399573676E-17,0.0,-1.0));
#539=CARTESIAN_POINT('',(1.45120645698961E-15,0.0,-23.7));
#540=DIRECTION('',(6.12323399573676E-17,0.0,-1.0));
#541=DIRECTION('',(0.0,1.0,0.0));
#542=DIRECTION('',(-6.12323399573676E-17,-0.0,1.0));
#543=CARTESIAN_POINT('',(1.80635402874235E-15,0.0,-29.5));
#544=DIRECTION('',(6.12323399573676E-17,0.0,-1.0));
#545=DIRECTION('',(0.0,1.0,0.0));
#546=CARTESIAN_POINT('',(1.45120645698961E-15,0.0,-23.7));
#547=DIRECTION('',(6.12323399573676E-17,0.0,-1.0));
#548=DIRECTION('',(0.0,1.0,0.0));
#549=CARTESIAN_POINT('',(1.80635402874235E-15,0.0,-29.5));
#550=DIRECTION('',(6.12323399573676E-17,0.0,-1.0));
#551=DIRECTION('',(0.0,1.0,0.0));
#552=CARTESIAN_POINT('',(1.83697019872103E-15,0.0,-30.0));
#553=DIRECTION('',(6.12323399573677E-17,0.0,-1.0));
#554=DIRECTION('',(0.0,1.0,0.0));
#555=DIRECTION('',(6.12323399573677E-17,0.0,-1.0));
#556=CARTESIAN_POINT('',(0.0,0.0,0.0));
#557=DIRECTION('',(6.12323399573677E-17,0.0,-1.0));
#558=DIRECTION('',(0.0,1.0,0.0));
#559=DIRECTION('',(-6.12323399573677E-17,-0.0,1.0));
#560=CARTESIAN_POINT('',(1.45120645698961E-15,0.0,-23.7));
#561=DIRECTION('',(6.12323399573677E-17,0.0,-1.0));
#562=DIRECTION('',(0.0,1.0,0.0));
#563=DIRECTION('',(6.12323399573676E-17,0.0,-1.0));
#564=CARTESIAN_POINT('',(-2.67585325613697E-15,0.0,43.7));
#565=DIRECTION('',(6.12323399573676E-17,0.0,-1.0));
#566=DIRECTION('',(0.0,1.0,0.0));
#567=DIRECTION('',(-6.12323399573676E-17,-0.0,1.0));
#568=CARTESIAN_POINT('',(0.0,0.0,0.0));
#569=DIRECTION('',(6.12323399573676E-17,0.0,-1.0));
#570=DIRECTION('',(0.0,1.0,0.0));
#571=DIRECTION('',(-4.32978028117747E-17,0.707106781186548,-0.707106781186547));
#572=CARTESIAN_POINT('',(-2.75545529808154E-15,0.0,45.0));
#573=DIRECTION('',(6.12323399573677E-17,0.0,-1.0));
#574=DIRECTION('',(0.0,1.0,0.0));
#575=DIRECTION('',(-1.29893408435324E-16,0.707106781186548,0.707106781186547));
#576=CARTESIAN_POINT('',(-2.75545529808154E-15,0.0,45.0));
#577=DIRECTION('',(6.12323399573677E-17,0.0,-1.0));
#578=DIRECTION('',(0.0,1.0,0.0));
#579=CARTESIAN_POINT('',(-2.67585325613697E-15,0.0,43.7));
#580=DIRECTION('',(6.12323399573676E-17,0.0,-1.0));
#581=DIRECTION('',(0.0,1.0,0.0));
#582=CARTESIAN_POINT('',(0.0,0.0,0.0));
#583=DIRECTION('',(6.12323399573676E-17,0.0,-1.0));
#584=DIRECTION('',(0.0,1.0,0.0));
#585=CARTESIAN_POINT('',(0.0,0.0,0.0));
#586=DIRECTION('',(6.12323399573677E-17,0.0,-1.0));
#587=DIRECTION('',(0.0,1.0,0.0));
#588=CARTESIAN_POINT('',(1.45120645698961E-15,0.0,-23.7));
#589=DIRECTION('',(6.12323399573677E-17,0.0,-1.0));
#590=DIRECTION('',(0.0,1.0,0.0));
#591=DIRECTION('',(0.0,0.0,1.0));
#592=DIRECTION('',(1.0,0.0,0.0));
#593=CARTESIAN_POINT('',(0.0,0.0,45.000000));
#594=AXIS2_PLACEMENT_3D('PCS', #593,#591,#592);
#595=CARTESIAN_POINT('',(0.0,0.0,0.000000));
#596=AXIS2_PLACEMENT_3D('MCS', #595,#591,#592);
#597=CARTESIAN_POINT('',(0.0,0.0,-30.000000));
#598=AXIS2_PLACEMENT_3D('CIP', #597,#591,#592);
ENDSEC;
END-ISO-10303-21;
