ISO-10303-21;
HEADER;
FILE_DESCRIPTION(('STEP AP214'),'1');
FILE_NAME('607797155-000-00-E43.stp','2022-09-19T08:55:28',(' '),(' '),'Spatial InterOp 3D',' ',' ');
FILE_SCHEMA(('AUTOMOTIVE_DESIGN { 1 0 10303 214 1 1 1 1 }'));
ENDSEC;
DATA;
#1=MECHANICAL_DESIGN_GEOMETRIC_PRESENTATION_REPRESENTATION(' ',(#12,#13,#14,#15,#16,#17,#18,#19,#20,#21,#22,#23,#24,#25,#26,#27,#28,#29,#30,#31,#32,#33,#34,#35,#36,#37,#38),#8);
#2=PRODUCT_DEFINITION_CONTEXT('',#39,'design');
#3=APPLICATION_PROTOCOL_DEFINITION('INTERNATIONAL STANDARD','automotive_design',1994,#39);
#4=PRODUCT_CATEGORY_RELATIONSHIP('NONE','NONE',#40,#41);
#5=SHAPE_DEFINITION_REPRESENTATION(#42,#43);
#6=SHAPE_DEFINITION_REPRESENTATION(#42,#44);
#7=SHAPE_DEFINITION_REPRESENTATION(#42,#45);
#8= (GEOMETRIC_REPRESENTATION_CONTEXT(3)GLOBAL_UNCERTAINTY_ASSIGNED_CONTEXT((#48))GLOBAL_UNIT_ASSIGNED_CONTEXT((#50,#51,#52))REPRESENTATION_CONTEXT('NONE','WORKSPACE'));
#12=STYLED_ITEM('',(#54),#55);
#13=STYLED_ITEM('',(#56),#57);
#14=STYLED_ITEM('',(#58),#59);
#15=STYLED_ITEM('',(#60),#61);
#16=STYLED_ITEM('',(#62),#63);
#17=STYLED_ITEM('',(#64),#65);
#18=STYLED_ITEM('',(#66),#67);
#19=STYLED_ITEM('',(#68),#69);
#20=STYLED_ITEM('',(#70),#71);
#21=STYLED_ITEM('',(#72),#73);
#22=STYLED_ITEM('',(#74),#75);
#23=STYLED_ITEM('',(#76),#77);
#24=STYLED_ITEM('',(#78),#79);
#25=STYLED_ITEM('',(#80),#81);
#26=STYLED_ITEM('',(#82),#83);
#27=STYLED_ITEM('',(#84),#85);
#28=STYLED_ITEM('',(#86),#87);
#29=STYLED_ITEM('',(#88),#89);
#30=STYLED_ITEM('',(#90),#91);
#31=STYLED_ITEM('',(#92),#93);
#32=STYLED_ITEM('',(#94),#95);
#33=STYLED_ITEM('',(#96),#97);
#34=STYLED_ITEM('',(#98),#99);
#35=STYLED_ITEM('',(#100),#101);
#36=STYLED_ITEM('',(#102),#103);
#37=STYLED_ITEM('',(#104),#105);
#38=STYLED_ITEM('',(#106),#107);
#39=APPLICATION_CONTEXT(' ');
#40=PRODUCT_CATEGORY('part','NONE');
#41=PRODUCT_RELATED_PRODUCT_CATEGORY('detail',' ',(#108));
#42=PRODUCT_DEFINITION_SHAPE('NONE','NONE',#109);
#43=ADVANCED_BREP_SHAPE_REPRESENTATION('1',(#110,#111),#8);
#44=ADVANCED_BREP_SHAPE_REPRESENTATION('2',(#112,#113),#8);
#45=GEOMETRICALLY_BOUNDED_SURFACE_SHAPE_REPRESENTATION('3',(#114,#115),#8);
#48=UNCERTAINTY_MEASURE_WITH_UNIT(LENGTH_MEASURE(1.0E-06),#50,'','');
#50= (CONVERSION_BASED_UNIT('MILLIMETRE',#118)LENGTH_UNIT()NAMED_UNIT(#121));
#51= (NAMED_UNIT(#123)PLANE_ANGLE_UNIT()SI_UNIT($,.RADIAN.));
#52= (NAMED_UNIT(#123)SOLID_ANGLE_UNIT()SI_UNIT($,.STERADIAN.));
#54=PRESENTATION_STYLE_ASSIGNMENT((#129));
#55=COMPOSITE_CURVE('',(#130),.U.);
#56=PRESENTATION_STYLE_ASSIGNMENT((#131));
#57=COMPOSITE_CURVE('',(#132),.U.);
#58=PRESENTATION_STYLE_ASSIGNMENT((#133));
#59=COMPOSITE_CURVE('',(#134),.U.);
#60=PRESENTATION_STYLE_ASSIGNMENT((#135));
#61=COMPOSITE_CURVE('',(#136),.U.);
#62=PRESENTATION_STYLE_ASSIGNMENT((#137));
#63=COMPOSITE_CURVE('',(#138),.U.);
#64=PRESENTATION_STYLE_ASSIGNMENT((#139));
#65=COMPOSITE_CURVE('',(#140),.U.);
#66=PRESENTATION_STYLE_ASSIGNMENT((#141));
#67=COMPOSITE_CURVE('',(#142),.U.);
#68=PRESENTATION_STYLE_ASSIGNMENT((#143));
#69=COMPOSITE_CURVE('',(#144),.U.);
#70=PRESENTATION_STYLE_ASSIGNMENT((#145));
#71=COMPOSITE_CURVE('',(#146),.U.);
#72=PRESENTATION_STYLE_ASSIGNMENT((#147));
#73=COMPOSITE_CURVE('',(#148),.U.);
#74=PRESENTATION_STYLE_ASSIGNMENT((#149));
#75=COMPOSITE_CURVE('',(#150),.U.);
#76=PRESENTATION_STYLE_ASSIGNMENT((#151));
#77=COMPOSITE_CURVE('',(#152),.U.);
#78=PRESENTATION_STYLE_ASSIGNMENT((#153));
#79=COMPOSITE_CURVE('',(#154),.U.);
#80=PRESENTATION_STYLE_ASSIGNMENT((#155));
#81=ADVANCED_FACE('',(#156),#157,.T.);
#82=PRESENTATION_STYLE_ASSIGNMENT((#158));
#83=ADVANCED_FACE('',(#159),#160,.T.);
#84=PRESENTATION_STYLE_ASSIGNMENT((#161));
#85=ADVANCED_FACE('',(#162),#163,.T.);
#86=PRESENTATION_STYLE_ASSIGNMENT((#164));
#87=ADVANCED_FACE('',(#165),#166,.T.);
#88=PRESENTATION_STYLE_ASSIGNMENT((#167));
#89=ADVANCED_FACE('',(#168),#169,.T.);
#90=PRESENTATION_STYLE_ASSIGNMENT((#170));
#91=ADVANCED_FACE('',(#171),#172,.T.);
#92=PRESENTATION_STYLE_ASSIGNMENT((#173));
#93=ADVANCED_FACE('',(#174),#175,.T.);
#94=PRESENTATION_STYLE_ASSIGNMENT((#176));
#95=ADVANCED_FACE('',(#177),#178,.T.);
#96=PRESENTATION_STYLE_ASSIGNMENT((#179));
#97=ADVANCED_FACE('',(#180),#181,.T.);
#98=PRESENTATION_STYLE_ASSIGNMENT((#182));
#99=ADVANCED_FACE('',(#183),#184,.T.);
#100=PRESENTATION_STYLE_ASSIGNMENT((#185));
#101=ADVANCED_FACE('',(#186),#187,.T.);
#102=PRESENTATION_STYLE_ASSIGNMENT((#188));
#103=ADVANCED_FACE('',(#189),#190,.T.);
#104=PRESENTATION_STYLE_ASSIGNMENT((#191));
#105=ADVANCED_FACE('',(#192),#193,.T.);
#106=PRESENTATION_STYLE_ASSIGNMENT((#194));
#107=ADVANCED_FACE('',(#195),#196,.T.);
#108=PRODUCT('1','','PART--DESC',(#197));
#109=PRODUCT_DEFINITION('','NONE',#198,#2);
#110=MANIFOLD_SOLID_BREP('1',#199);
#111=AXIS2_PLACEMENT_3D('',#200,#201,#202);
#112=MANIFOLD_SOLID_BREP('2',#203);
#113=AXIS2_PLACEMENT_3D('',#204,#205,#206);
#114=GEOMETRIC_SET('3',(#55,#57,#59,#61,#63,#65,#67,#69,#71,#73,#75,#77,#79));
#115=AXIS2_PLACEMENT_3D('',#207,#208,#209);
#118=LENGTH_MEASURE_WITH_UNIT(LENGTH_MEASURE(1.0),#210);
#121=DIMENSIONAL_EXPONENTS(1.0,0.0,0.0,0.0,0.0,0.0,0.0);
#123=DIMENSIONAL_EXPONENTS(0.0,0.0,0.0,0.0,0.0,0.0,0.0);
#129=CURVE_STYLE('',#211,POSITIVE_LENGTH_MEASURE(1.0E-06),#212);
#130=COMPOSITE_CURVE_SEGMENT(.CONTINUOUS.,.T.,#213);
#131=CURVE_STYLE('',#214,POSITIVE_LENGTH_MEASURE(1.0E-06),#215);
#132=COMPOSITE_CURVE_SEGMENT(.CONTINUOUS.,.T.,#216);
#133=CURVE_STYLE('',#217,POSITIVE_LENGTH_MEASURE(1.0E-06),#218);
#134=COMPOSITE_CURVE_SEGMENT(.CONTINUOUS.,.T.,#219);
#135=CURVE_STYLE('',#220,POSITIVE_LENGTH_MEASURE(1.0E-06),#221);
#136=COMPOSITE_CURVE_SEGMENT(.CONTINUOUS.,.T.,#222);
#137=CURVE_STYLE('',#223,POSITIVE_LENGTH_MEASURE(1.0E-06),#224);
#138=COMPOSITE_CURVE_SEGMENT(.CONTINUOUS.,.T.,#225);
#139=CURVE_STYLE('',#226,POSITIVE_LENGTH_MEASURE(1.0E-06),#227);
#140=COMPOSITE_CURVE_SEGMENT(.CONTINUOUS.,.T.,#228);
#141=CURVE_STYLE('',#229,POSITIVE_LENGTH_MEASURE(1.0E-06),#230);
#142=COMPOSITE_CURVE_SEGMENT(.CONTINUOUS.,.T.,#231);
#143=CURVE_STYLE('',#232,POSITIVE_LENGTH_MEASURE(1.0E-06),#233);
#144=COMPOSITE_CURVE_SEGMENT(.CONTINUOUS.,.T.,#234);
#145=CURVE_STYLE('',#235,POSITIVE_LENGTH_MEASURE(1.0E-06),#236);
#146=COMPOSITE_CURVE_SEGMENT(.CONTINUOUS.,.T.,#237);
#147=CURVE_STYLE('',#238,POSITIVE_LENGTH_MEASURE(1.0E-06),#239);
#148=COMPOSITE_CURVE_SEGMENT(.CONTINUOUS.,.T.,#240);
#149=CURVE_STYLE('',#241,POSITIVE_LENGTH_MEASURE(1.0E-06),#242);
#150=COMPOSITE_CURVE_SEGMENT(.CONTINUOUS.,.T.,#243);
#151=CURVE_STYLE('',#244,POSITIVE_LENGTH_MEASURE(1.0E-06),#245);
#152=COMPOSITE_CURVE_SEGMENT(.CONTINUOUS.,.T.,#246);
#153=CURVE_STYLE('',#247,POSITIVE_LENGTH_MEASURE(1.0E-06),#248);
#154=COMPOSITE_CURVE_SEGMENT(.CONTINUOUS.,.T.,#249);
#155=SURFACE_STYLE_USAGE(.BOTH.,#250);
#156=FACE_OUTER_BOUND('',#251,.T.);
#157=CYLINDRICAL_SURFACE('',#252,1.85);
#158=SURFACE_STYLE_USAGE(.BOTH.,#253);
#159=FACE_OUTER_BOUND('',#254,.T.);
#160=CYLINDRICAL_SURFACE('',#255,1.85);
#161=SURFACE_STYLE_USAGE(.BOTH.,#256);
#162=FACE_OUTER_BOUND('',#257,.T.);
#163=PLANE('',#258);
#164=SURFACE_STYLE_USAGE(.BOTH.,#259);
#165=FACE_OUTER_BOUND('',#260,.T.);
#166=PLANE('',#261);
#167=SURFACE_STYLE_USAGE(.BOTH.,#262);
#168=FACE_OUTER_BOUND('',#263,.T.);
#169=CYLINDRICAL_SURFACE('',#264,1.85);
#170=SURFACE_STYLE_USAGE(.BOTH.,#265);
#171=FACE_OUTER_BOUND('',#266,.T.);
#172=CONICAL_SURFACE('',#267,2.425,0.785398163397449);
#173=SURFACE_STYLE_USAGE(.BOTH.,#268);
#174=FACE_OUTER_BOUND('',#269,.T.);
#175=CYLINDRICAL_SURFACE('',#270,3.0);
#176=SURFACE_STYLE_USAGE(.BOTH.,#271);
#177=FACE_OUTER_BOUND('',#272,.T.);
#178=CONICAL_SURFACE('',#273,2.35,0.785398163397448);
#179=SURFACE_STYLE_USAGE(.BOTH.,#274);
#180=FACE_OUTER_BOUND('',#275,.T.);
#181=PLANE('',#276);
#182=SURFACE_STYLE_USAGE(.BOTH.,#277);
#183=FACE_OUTER_BOUND('',#278,.T.);
#184=CONICAL_SURFACE('',#279,2.35,0.785398163397448);
#185=SURFACE_STYLE_USAGE(.BOTH.,#280);
#186=FACE_OUTER_BOUND('',#281,.T.);
#187=CYLINDRICAL_SURFACE('',#282,3.0);
#188=SURFACE_STYLE_USAGE(.BOTH.,#283);
#189=FACE_OUTER_BOUND('',#284,.T.);
#190=CONICAL_SURFACE('',#285,2.425,0.785398163397449);
#191=SURFACE_STYLE_USAGE(.BOTH.,#286);
#192=FACE_OUTER_BOUND('',#287,.T.);
#193=CYLINDRICAL_SURFACE('',#288,1.85);
#194=SURFACE_STYLE_USAGE(.BOTH.,#289);
#195=FACE_OUTER_BOUND('',#290,.T.);
#196=PLANE('',#291);
#197=PRODUCT_CONTEXT('',#39,'mechanical');
#198=PRODUCT_DEFINITION_FORMATION_WITH_SPECIFIED_SOURCE(' ','NONE',#108,.NOT_KNOWN.);
#199=CLOSED_SHELL('',(#81,#83,#85,#87));
#200=CARTESIAN_POINT('',(0.0,0.0,0.0));
#201=DIRECTION('',(0.0,0.0,1.0));
#202=DIRECTION('',(1.0,0.0,0.0));
#203=CLOSED_SHELL('',(#89,#91,#93,#95,#97,#99,#101,#103,#105,#107));
#204=CARTESIAN_POINT('',(0.0,0.0,0.0));
#205=DIRECTION('',(0.0,0.0,1.0));
#206=DIRECTION('',(1.0,0.0,0.0));
#207=CARTESIAN_POINT('',(0.0,0.0,0.0));
#208=DIRECTION('',(0.0,0.0,1.0));
#209=DIRECTION('',(1.0,0.0,0.0));
#210= (NAMED_UNIT(#121)LENGTH_UNIT()SI_UNIT(.MILLI.,.METRE.));
#211=DRAUGHTING_PRE_DEFINED_CURVE_FONT('continuous');
#212=COLOUR_RGB('',0.0,0.0,1.0);
#213=TRIMMED_CURVE('',#293,(PARAMETER_VALUE(0.0)),(PARAMETER_VALUE(1.85)),.T.,.UNSPECIFIED.);
#214=DRAUGHTING_PRE_DEFINED_CURVE_FONT('continuous');
#215=COLOUR_RGB('',0.0,0.0,1.0);
#216=TRIMMED_CURVE('',#294,(PARAMETER_VALUE(0.0)),(PARAMETER_VALUE(1.85)),.T.,.UNSPECIFIED.);
#217=DRAUGHTING_PRE_DEFINED_CURVE_FONT('continuous');
#218=COLOUR_RGB('',0.498039215803146,0.498039215803146,0.498039215803146);
#219=TRIMMED_CURVE('',#295,(PARAMETER_VALUE(0.0)),(PARAMETER_VALUE(13.75)),.T.,.UNSPECIFIED.);
#220=DRAUGHTING_PRE_DEFINED_CURVE_FONT('continuous');
#221=COLOUR_RGB('',0.0,0.0,1.0);
#222=TRIMMED_CURVE('',#296,(PARAMETER_VALUE(0.0)),(PARAMETER_VALUE(1.85)),.T.,.UNSPECIFIED.);
#223=DRAUGHTING_PRE_DEFINED_CURVE_FONT('continuous');
#224=COLOUR_RGB('',0.498039215803146,0.498039215803146,0.498039215803146);
#225=TRIMMED_CURVE('',#297,(PARAMETER_VALUE(0.0)),(PARAMETER_VALUE(1.85)),.T.,.UNSPECIFIED.);
#226=DRAUGHTING_PRE_DEFINED_CURVE_FONT('continuous');
#227=COLOUR_RGB('',0.0,0.0,1.0);
#228=TRIMMED_CURVE('',#298,(PARAMETER_VALUE(0.0)),(PARAMETER_VALUE(11.1)),.T.,.UNSPECIFIED.);
#229=DRAUGHTING_PRE_DEFINED_CURVE_FONT('continuous');
#230=COLOUR_RGB('',0.0,0.0,1.0);
#231=TRIMMED_CURVE('',#299,(PARAMETER_VALUE(0.0)),(PARAMETER_VALUE(11.1)),.T.,.UNSPECIFIED.);
#232=DRAUGHTING_PRE_DEFINED_CURVE_FONT('continuous');
#233=COLOUR_RGB('',0.498039215803146,0.498039215803146,0.498039215803146);
#234=TRIMMED_CURVE('',#300,(PARAMETER_VALUE(0.0)),(PARAMETER_VALUE(50.9)),.T.,.UNSPECIFIED.);
#235=DRAUGHTING_PRE_DEFINED_CURVE_FONT('continuous');
#236=COLOUR_RGB('',0.498039215803146,0.498039215803146,0.498039215803146);
#237=TRIMMED_CURVE('',#301,(PARAMETER_VALUE(0.0)),(PARAMETER_VALUE(1.7)),.T.,.UNSPECIFIED.);
#238=DRAUGHTING_PRE_DEFINED_CURVE_FONT('continuous');
#239=COLOUR_RGB('',0.498039215803146,0.498039215803146,0.498039215803146);
#240=TRIMMED_CURVE('',#302,(PARAMETER_VALUE(0.0)),(PARAMETER_VALUE(1.83847763108502)),.T.,.UNSPECIFIED.);
#241=DRAUGHTING_PRE_DEFINED_CURVE_FONT('continuous');
#242=COLOUR_RGB('',0.498039215803146,0.498039215803146,0.498039215803146);
#243=TRIMMED_CURVE('',#303,(PARAMETER_VALUE(0.0)),(PARAMETER_VALUE(34.7)),.T.,.UNSPECIFIED.);
#244=DRAUGHTING_PRE_DEFINED_CURVE_FONT('continuous');
#245=COLOUR_RGB('',0.498039215803146,0.498039215803146,0.498039215803146);
#246=TRIMMED_CURVE('',#304,(PARAMETER_VALUE(0.0)),(PARAMETER_VALUE(1.62634559672906)),.T.,.UNSPECIFIED.);
#247=DRAUGHTING_PRE_DEFINED_CURVE_FONT('continuous');
#248=COLOUR_RGB('',0.0,1.0,0.0);
#249=TRIMMED_CURVE('',#305,(PARAMETER_VALUE(0.0)),(PARAMETER_VALUE(3.0)),.T.,.UNSPECIFIED.);
#250=SURFACE_SIDE_STYLE('',(#306));
#251=EDGE_LOOP('',(#307,#308,#309,#310));
#252=AXIS2_PLACEMENT_3D('',#311,#312,#313);
#253=SURFACE_SIDE_STYLE('',(#314));
#254=EDGE_LOOP('',(#315,#316,#317,#318));
#255=AXIS2_PLACEMENT_3D('',#319,#320,#321);
#256=SURFACE_SIDE_STYLE('',(#322));
#257=EDGE_LOOP('',(#323,#324));
#258=AXIS2_PLACEMENT_3D('',#325,#326,#327);
#259=SURFACE_SIDE_STYLE('',(#328));
#260=EDGE_LOOP('',(#329,#330));
#261=AXIS2_PLACEMENT_3D('',#331,#332,#333);
#262=SURFACE_SIDE_STYLE('',(#334));
#263=EDGE_LOOP('',(#335,#336,#337,#338));
#264=AXIS2_PLACEMENT_3D('',#339,#340,#341);
#265=SURFACE_SIDE_STYLE('',(#342));
#266=EDGE_LOOP('',(#343,#344,#345,#346));
#267=AXIS2_PLACEMENT_3D('',#347,#348,#349);
#268=SURFACE_SIDE_STYLE('',(#350));
#269=EDGE_LOOP('',(#351,#352,#353,#354));
#270=AXIS2_PLACEMENT_3D('',#355,#356,#357);
#271=SURFACE_SIDE_STYLE('',(#358));
#272=EDGE_LOOP('',(#359,#360,#361,#362));
#273=AXIS2_PLACEMENT_3D('',#363,#364,#365);
#274=SURFACE_SIDE_STYLE('',(#366));
#275=EDGE_LOOP('',(#367,#368));
#276=AXIS2_PLACEMENT_3D('',#369,#370,#371);
#277=SURFACE_SIDE_STYLE('',(#372));
#278=EDGE_LOOP('',(#373,#374,#375,#376));
#279=AXIS2_PLACEMENT_3D('',#377,#378,#379);
#280=SURFACE_SIDE_STYLE('',(#380));
#281=EDGE_LOOP('',(#381,#382,#383,#384));
#282=AXIS2_PLACEMENT_3D('',#385,#386,#387);
#283=SURFACE_SIDE_STYLE('',(#388));
#284=EDGE_LOOP('',(#389,#390,#391,#392));
#285=AXIS2_PLACEMENT_3D('',#393,#394,#395);
#286=SURFACE_SIDE_STYLE('',(#396));
#287=EDGE_LOOP('',(#397,#398,#399,#400));
#288=AXIS2_PLACEMENT_3D('',#401,#402,#403);
#289=SURFACE_SIDE_STYLE('',(#404));
#290=EDGE_LOOP('',(#405,#406));
#291=AXIS2_PLACEMENT_3D('',#407,#408,#409);
#293=LINE('',#410,#411);
#294=LINE('',#412,#413);
#295=LINE('',#414,#415);
#296=LINE('',#416,#417);
#297=LINE('',#418,#419);
#298=LINE('',#420,#421);
#299=LINE('',#422,#423);
#300=LINE('',#424,#425);
#301=LINE('',#426,#427);
#302=LINE('',#428,#429);
#303=LINE('',#430,#431);
#304=LINE('',#432,#433);
#305=LINE('',#434,#435);
#306=SURFACE_STYLE_FILL_AREA(#436);
#307=ORIENTED_EDGE('',*,*,#437,.F.);
#308=ORIENTED_EDGE('',*,*,#438,.T.);
#309=ORIENTED_EDGE('',*,*,#439,.F.);
#310=ORIENTED_EDGE('',*,*,#440,.F.);
#311=CARTESIAN_POINT('',(1.25220135212817E-15,0.0,-20.45));
#312=DIRECTION('',(6.12323399573677E-17,0.0,-1.0));
#313=DIRECTION('',(0.0,1.0,0.0));
#314=SURFACE_STYLE_FILL_AREA(#441);
#315=ORIENTED_EDGE('',*,*,#437,.T.);
#316=ORIENTED_EDGE('',*,*,#442,.F.);
#317=ORIENTED_EDGE('',*,*,#439,.T.);
#318=ORIENTED_EDGE('',*,*,#443,.T.);
#319=CARTESIAN_POINT('',(1.25220135212817E-15,0.0,-20.45));
#320=DIRECTION('',(6.12323399573677E-17,0.0,-1.0));
#321=DIRECTION('',(0.0,1.0,0.0));
#322=SURFACE_STYLE_FILL_AREA(#444);
#323=ORIENTED_EDGE('',*,*,#440,.T.);
#324=ORIENTED_EDGE('',*,*,#442,.T.);
#325=CARTESIAN_POINT('',(1.59204083889156E-15,0.925,-26.0));
#326=DIRECTION('',(6.12323399573677E-17,0.0,-1.0));
#327=DIRECTION('',(0.0,1.0,0.0));
#328=SURFACE_STYLE_FILL_AREA(#445);
#329=ORIENTED_EDGE('',*,*,#438,.F.);
#330=ORIENTED_EDGE('',*,*,#443,.F.);
#331=CARTESIAN_POINT('',(9.12361865364778E-16,0.925,-14.9));
#332=DIRECTION('',(-6.12323399573677E-17,0.0,1.0));
#333=DIRECTION('',(0.0,-1.0,0.0));
#334=SURFACE_STYLE_FILL_AREA(#446);
#335=ORIENTED_EDGE('',*,*,#447,.F.);
#336=ORIENTED_EDGE('',*,*,#448,.T.);
#337=ORIENTED_EDGE('',*,*,#449,.F.);
#338=ORIENTED_EDGE('',*,*,#450,.F.);
#339=CARTESIAN_POINT('',(4.91389528157875E-16,0.0,-8.025));
#340=DIRECTION('',(6.12323399573677E-17,0.0,-1.0));
#341=DIRECTION('',(0.0,1.0,0.0));
#342=SURFACE_STYLE_FILL_AREA(#451);
#343=ORIENTED_EDGE('',*,*,#452,.F.);
#344=ORIENTED_EDGE('',*,*,#453,.T.);
#345=ORIENTED_EDGE('',*,*,#454,.F.);
#346=ORIENTED_EDGE('',*,*,#448,.F.);
#347=CARTESIAN_POINT('',(3.52085954754866E-17,0.0,-0.575000000000003));
#348=DIRECTION('',(-6.12323399573677E-17,-0.0,1.0));
#349=DIRECTION('',(0.0,1.0,0.0));
#350=SURFACE_STYLE_FILL_AREA(#455);
#351=ORIENTED_EDGE('',*,*,#456,.F.);
#352=ORIENTED_EDGE('',*,*,#457,.T.);
#353=ORIENTED_EDGE('',*,*,#458,.F.);
#354=ORIENTED_EDGE('',*,*,#453,.F.);
#355=CARTESIAN_POINT('',(-1.06238109826033E-15,0.0,17.35));
#356=DIRECTION('',(6.12323399573676E-17,0.0,-1.0));
#357=DIRECTION('',(0.0,1.0,0.0));
#358=SURFACE_STYLE_FILL_AREA(#459);
#359=ORIENTED_EDGE('',*,*,#460,.F.);
#360=ORIENTED_EDGE('',*,*,#461,.T.);
#361=ORIENTED_EDGE('',*,*,#462,.F.);
#362=ORIENTED_EDGE('',*,*,#457,.F.);
#363=CARTESIAN_POINT('',(-2.16456321749295E-15,0.0,35.35));
#364=DIRECTION('',(6.12323399573677E-17,-0.0,-1.0));
#365=DIRECTION('',(0.0,1.0,0.0));
#366=SURFACE_STYLE_FILL_AREA(#463);
#367=ORIENTED_EDGE('',*,*,#461,.F.);
#368=ORIENTED_EDGE('',*,*,#464,.F.);
#369=CARTESIAN_POINT('',(-2.20436423846524E-15,0.85,36.0));
#370=DIRECTION('',(-6.12323399573677E-17,0.0,1.0));
#371=DIRECTION('',(0.0,-1.0,0.0));
#372=SURFACE_STYLE_FILL_AREA(#465);
#373=ORIENTED_EDGE('',*,*,#460,.T.);
#374=ORIENTED_EDGE('',*,*,#466,.F.);
#375=ORIENTED_EDGE('',*,*,#462,.T.);
#376=ORIENTED_EDGE('',*,*,#464,.T.);
#377=CARTESIAN_POINT('',(-2.16456321749295E-15,0.0,35.35));
#378=DIRECTION('',(6.12323399573677E-17,-0.0,-1.0));
#379=DIRECTION('',(0.0,1.0,0.0));
#380=SURFACE_STYLE_FILL_AREA(#467);
#381=ORIENTED_EDGE('',*,*,#456,.T.);
#382=ORIENTED_EDGE('',*,*,#468,.F.);
#383=ORIENTED_EDGE('',*,*,#458,.T.);
#384=ORIENTED_EDGE('',*,*,#466,.T.);
#385=CARTESIAN_POINT('',(-1.06238109826033E-15,0.0,17.35));
#386=DIRECTION('',(6.12323399573676E-17,0.0,-1.0));
#387=DIRECTION('',(0.0,1.0,0.0));
#388=SURFACE_STYLE_FILL_AREA(#469);
#389=ORIENTED_EDGE('',*,*,#452,.T.);
#390=ORIENTED_EDGE('',*,*,#470,.F.);
#391=ORIENTED_EDGE('',*,*,#454,.T.);
#392=ORIENTED_EDGE('',*,*,#468,.T.);
#393=CARTESIAN_POINT('',(3.52085954754866E-17,0.0,-0.575000000000003));
#394=DIRECTION('',(-6.12323399573677E-17,-0.0,1.0));
#395=DIRECTION('',(0.0,1.0,0.0));
#396=SURFACE_STYLE_FILL_AREA(#471);
#397=ORIENTED_EDGE('',*,*,#447,.T.);
#398=ORIENTED_EDGE('',*,*,#472,.F.);
#399=ORIENTED_EDGE('',*,*,#449,.T.);
#400=ORIENTED_EDGE('',*,*,#470,.T.);
#401=CARTESIAN_POINT('',(4.91389528157875E-16,0.0,-8.025));
#402=DIRECTION('',(6.12323399573677E-17,0.0,-1.0));
#403=DIRECTION('',(0.0,1.0,0.0));
#404=SURFACE_STYLE_FILL_AREA(#473);
#405=ORIENTED_EDGE('',*,*,#450,.T.);
#406=ORIENTED_EDGE('',*,*,#472,.T.);
#407=CARTESIAN_POINT('',(9.12361865364778E-16,0.925,-14.9));
#408=DIRECTION('',(6.12323399573677E-17,0.0,-1.0));
#409=DIRECTION('',(0.0,1.0,0.0));
#410=CARTESIAN_POINT('',(1.59204083889156E-15,0.0,-26.0));
#411=VECTOR('',#474,1.0);
#412=CARTESIAN_POINT('',(1.59204083889156E-15,0.0,-26.0));
#413=VECTOR('',#475,1.0);
#414=CARTESIAN_POINT('',(7.04171909509727E-17,1.85,-1.15));
#415=VECTOR('',#476,1.0);
#416=CARTESIAN_POINT('',(9.12361865364778E-16,1.85,-14.9));
#417=VECTOR('',#477,1.0);
#418=CARTESIAN_POINT('',(9.12361865364778E-16,1.85,-14.9));
#419=VECTOR('',#478,1.0);
#420=CARTESIAN_POINT('',(9.12361865364778E-16,1.85,-14.9));
#421=VECTOR('',#479,1.0);
#422=CARTESIAN_POINT('',(9.12361865364778E-16,0.0,-14.9));
#423=VECTOR('',#480,1.0);
#424=CARTESIAN_POINT('',(9.12361865364778E-16,0.0,-14.9));
#425=VECTOR('',#481,1.0);
#426=CARTESIAN_POINT('',(-2.20436423846524E-15,0.0,36.0));
#427=VECTOR('',#482,1.0);
#428=CARTESIAN_POINT('',(-2.20436423846524E-15,1.7,36.0));
#429=VECTOR('',#483,1.0);
#430=CARTESIAN_POINT('',(-2.12476219652066E-15,3.0,34.7));
#431=VECTOR('',#484,1.0);
#432=CARTESIAN_POINT('',(0.0,3.0,0.0));
#433=VECTOR('',#485,1.0);
#434=CARTESIAN_POINT('',(0.0,3.0,0.0));
#435=VECTOR('',#486,1.0);
#436=FILL_AREA_STYLE('',(#487));
#437=EDGE_CURVE('',#488,#489,#490,.T.);
#438=EDGE_CURVE('',#488,#491,#492,.T.);
#439=EDGE_CURVE('',#493,#491,#494,.T.);
#440=EDGE_CURVE('',#489,#493,#495,.T.);
#441=FILL_AREA_STYLE('',(#496));
#442=EDGE_CURVE('',#493,#489,#497,.T.);
#443=EDGE_CURVE('',#491,#488,#498,.T.);
#444=FILL_AREA_STYLE('',(#499));
#445=FILL_AREA_STYLE('',(#500));
#446=FILL_AREA_STYLE('',(#501));
#447=EDGE_CURVE('',#502,#503,#504,.T.);
#448=EDGE_CURVE('',#502,#505,#506,.T.);
#449=EDGE_CURVE('',#507,#505,#508,.T.);
#450=EDGE_CURVE('',#503,#507,#509,.T.);
#451=FILL_AREA_STYLE('',(#510));
#452=EDGE_CURVE('',#511,#502,#512,.T.);
#453=EDGE_CURVE('',#511,#513,#514,.T.);
#454=EDGE_CURVE('',#505,#513,#515,.T.);
#455=FILL_AREA_STYLE('',(#516));
#456=EDGE_CURVE('',#517,#511,#518,.T.);
#457=EDGE_CURVE('',#517,#519,#520,.T.);
#458=EDGE_CURVE('',#513,#519,#521,.T.);
#459=FILL_AREA_STYLE('',(#522));
#460=EDGE_CURVE('',#523,#517,#524,.T.);
#461=EDGE_CURVE('',#523,#525,#526,.T.);
#462=EDGE_CURVE('',#519,#525,#527,.T.);
#463=FILL_AREA_STYLE('',(#528));
#464=EDGE_CURVE('',#525,#523,#529,.T.);
#465=FILL_AREA_STYLE('',(#530));
#466=EDGE_CURVE('',#519,#517,#531,.T.);
#467=FILL_AREA_STYLE('',(#532));
#468=EDGE_CURVE('',#513,#511,#533,.T.);
#469=FILL_AREA_STYLE('',(#534));
#470=EDGE_CURVE('',#505,#502,#535,.T.);
#471=FILL_AREA_STYLE('',(#536));
#472=EDGE_CURVE('',#507,#503,#537,.T.);
#473=FILL_AREA_STYLE('',(#538));
#474=DIRECTION('',(0.0,1.0,0.0));
#475=DIRECTION('',(0.0,-1.0,0.0));
#476=DIRECTION('',(6.12323399573677E-17,0.0,-1.0));
#477=DIRECTION('',(0.0,-1.0,0.0));
#478=DIRECTION('',(0.0,-1.0,0.0));
#479=DIRECTION('',(6.12323399573676E-17,0.0,-1.0));
#480=DIRECTION('',(6.12323399573676E-17,0.0,-1.0));
#481=DIRECTION('',(-6.12323399573677E-17,0.0,1.0));
#482=DIRECTION('',(0.0,1.0,0.0));
#483=DIRECTION('',(4.32978028117747E-17,0.707106781186548,-0.707106781186547));
#484=DIRECTION('',(6.12323399573677E-17,0.0,-1.0));
#485=DIRECTION('',(4.32978028117746E-17,-0.707106781186548,-0.707106781186547));
#486=DIRECTION('',(0.0,-1.0,0.0));
#487=FILL_AREA_STYLE_COLOUR('',#539);
#488=VERTEX_POINT('',#540);
#489=VERTEX_POINT('',#541);
#490=LINE('',#542,#543);
#491=VERTEX_POINT('',#544);
#492=CIRCLE('',#545,1.85);
#493=VERTEX_POINT('',#546);
#494=LINE('',#547,#548);
#495=CIRCLE('',#549,1.85);
#496=FILL_AREA_STYLE_COLOUR('',#550);
#497=CIRCLE('',#551,1.85);
#498=CIRCLE('',#552,1.85);
#499=FILL_AREA_STYLE_COLOUR('',#553);
#500=FILL_AREA_STYLE_COLOUR('',#554);
#501=FILL_AREA_STYLE_COLOUR('',#555);
#502=VERTEX_POINT('',#556);
#503=VERTEX_POINT('',#557);
#504=LINE('',#558,#559);
#505=VERTEX_POINT('',#560);
#506=CIRCLE('',#561,1.85);
#507=VERTEX_POINT('',#562);
#508=LINE('',#563,#564);
#509=CIRCLE('',#565,1.85);
#510=FILL_AREA_STYLE_COLOUR('',#566);
#511=VERTEX_POINT('',#567);
#512=LINE('',#568,#569);
#513=VERTEX_POINT('',#570);
#514=CIRCLE('',#571,3.0);
#515=LINE('',#572,#573);
#516=FILL_AREA_STYLE_COLOUR('',#574);
#517=VERTEX_POINT('',#575);
#518=LINE('',#576,#577);
#519=VERTEX_POINT('',#578);
#520=CIRCLE('',#579,3.0);
#521=LINE('',#580,#581);
#522=FILL_AREA_STYLE_COLOUR('',#582);
#523=VERTEX_POINT('',#583);
#524=LINE('',#584,#585);
#525=VERTEX_POINT('',#586);
#526=CIRCLE('',#587,1.7);
#527=LINE('',#588,#589);
#528=FILL_AREA_STYLE_COLOUR('',#590);
#529=CIRCLE('',#591,1.7);
#530=FILL_AREA_STYLE_COLOUR('',#592);
#531=CIRCLE('',#593,3.0);
#532=FILL_AREA_STYLE_COLOUR('',#594);
#533=CIRCLE('',#595,3.0);
#534=FILL_AREA_STYLE_COLOUR('',#596);
#535=CIRCLE('',#597,1.85);
#536=FILL_AREA_STYLE_COLOUR('',#598);
#537=CIRCLE('',#599,1.85);
#538=FILL_AREA_STYLE_COLOUR('',#600);
#539=COLOUR_RGB('',0.800000011920929,0.800000011920929,0.800000011920929);
#540=CARTESIAN_POINT('',(9.12361865364778E-16,1.85,-14.9));
#541=CARTESIAN_POINT('',(1.59204083889156E-15,1.85,-26.0));
#542=CARTESIAN_POINT('',(1.02564169428591E-15,1.85,-20.45));
#543=VECTOR('',#601,1.0);
#544=CARTESIAN_POINT('',(1.13892152320704E-15,-1.85,-14.9));
#545=AXIS2_PLACEMENT_3D('',#602,#603,#604);
#546=CARTESIAN_POINT('',(1.81860049673382E-15,-1.85,-26.0));
#547=CARTESIAN_POINT('',(1.47876100997043E-15,-1.85,-20.45));
#548=VECTOR('',#605,1.0);
#549=AXIS2_PLACEMENT_3D('',#606,#607,#608);
#550=COLOUR_RGB('',0.800000011920929,0.800000011920929,0.800000011920929);
#551=AXIS2_PLACEMENT_3D('',#609,#610,#611);
#552=AXIS2_PLACEMENT_3D('',#612,#613,#614);
#553=COLOUR_RGB('',0.800000011920929,0.800000011920929,0.800000011920929);
#554=COLOUR_RGB('',0.800000011920929,0.800000011920929,0.800000011920929);
#555=COLOUR_RGB('',0.498039215803146,0.498039215803146,0.498039215803146);
#556=CARTESIAN_POINT('',(7.04171909509728E-17,1.85,-1.15));
#557=CARTESIAN_POINT('',(9.12361865364778E-16,1.85,-14.9));
#558=CARTESIAN_POINT('',(2.64829870315615E-16,1.85,-8.025));
#559=VECTOR('',#615,1.0);
#560=CARTESIAN_POINT('',(2.96976848793233E-16,-1.85,-1.15));
#561=AXIS2_PLACEMENT_3D('',#616,#617,#618);
#562=CARTESIAN_POINT('',(1.13892152320704E-15,-1.85,-14.9));
#563=CARTESIAN_POINT('',(7.17949186000136E-16,-1.85,-8.025));
#564=VECTOR('',#619,1.0);
#565=AXIS2_PLACEMENT_3D('',#620,#621,#622);
#566=COLOUR_RGB('',0.498039215803146,0.498039215803146,0.498039215803146);
#567=CARTESIAN_POINT('',(0.0,3.0,0.0));
#568=CARTESIAN_POINT('',(-2.61768253317746E-16,2.425,-0.575000000000003));
#569=VECTOR('',#623,1.0);
#570=CARTESIAN_POINT('',(3.67394039744205E-16,-3.0,2.24963967399278E-32));
#571=AXIS2_PLACEMENT_3D('',#624,#625,#626);
#572=CARTESIAN_POINT('',(3.3218544426872E-16,-2.425,-0.575000000000003));
#573=VECTOR('',#627,1.0);
#574=COLOUR_RGB('',0.498039215803146,0.498039215803146,0.498039215803146);
#575=CARTESIAN_POINT('',(-2.12476219652066E-15,3.0,34.7));
#576=CARTESIAN_POINT('',(-1.42977513800453E-15,3.0,17.35));
#577=VECTOR('',#628,1.0);
#578=CARTESIAN_POINT('',(-1.75736815677645E-15,-3.0,34.7));
#579=AXIS2_PLACEMENT_3D('',#629,#630,#631);
#580=CARTESIAN_POINT('',(-6.94987058516123E-16,-3.0,17.35));
#581=VECTOR('',#632,1.0);
#582=COLOUR_RGB('',0.498039215803146,0.498039215803146,0.498039215803146);
#583=CARTESIAN_POINT('',(-2.20436423846524E-15,1.7,36.0));
#584=CARTESIAN_POINT('',(-2.45235521529257E-15,2.35,35.35));
#585=VECTOR('',#633,1.0);
#586=CARTESIAN_POINT('',(-1.99617428261019E-15,-1.7,36.0));
#587=AXIS2_PLACEMENT_3D('',#634,#635,#636);
#588=CARTESIAN_POINT('',(-1.87677121969332E-15,-2.35,35.35));
#589=VECTOR('',#637,1.0);
#590=COLOUR_RGB('',0.498039215803146,0.498039215803146,0.498039215803146);
#591=AXIS2_PLACEMENT_3D('',#638,#639,#640);
#592=COLOUR_RGB('',0.498039215803146,0.498039215803146,0.498039215803146);
#593=AXIS2_PLACEMENT_3D('',#641,#642,#643);
#594=COLOUR_RGB('',0.498039215803146,0.498039215803146,0.498039215803146);
#595=AXIS2_PLACEMENT_3D('',#644,#645,#646);
#596=COLOUR_RGB('',0.498039215803146,0.498039215803146,0.498039215803146);
#597=AXIS2_PLACEMENT_3D('',#647,#648,#649);
#598=COLOUR_RGB('',0.498039215803146,0.498039215803146,0.498039215803146);
#599=AXIS2_PLACEMENT_3D('',#650,#651,#652);
#600=COLOUR_RGB('',0.498039215803146,0.498039215803146,0.498039215803146);
#601=DIRECTION('',(6.12323399573677E-17,0.0,-1.0));
#602=CARTESIAN_POINT('',(9.12361865364778E-16,0.0,-14.9));
#603=DIRECTION('',(6.12323399573677E-17,0.0,-1.0));
#604=DIRECTION('',(0.0,1.0,0.0));
#605=DIRECTION('',(-6.12323399573677E-17,-0.0,1.0));
#606=CARTESIAN_POINT('',(1.59204083889156E-15,0.0,-26.0));
#607=DIRECTION('',(6.12323399573677E-17,0.0,-1.0));
#608=DIRECTION('',(0.0,1.0,0.0));
#609=CARTESIAN_POINT('',(1.59204083889156E-15,0.0,-26.0));
#610=DIRECTION('',(6.12323399573677E-17,0.0,-1.0));
#611=DIRECTION('',(0.0,1.0,0.0));
#612=CARTESIAN_POINT('',(9.12361865364778E-16,0.0,-14.9));
#613=DIRECTION('',(6.12323399573677E-17,0.0,-1.0));
#614=DIRECTION('',(0.0,1.0,0.0));
#615=DIRECTION('',(6.12323399573677E-17,0.0,-1.0));
#616=CARTESIAN_POINT('',(7.04171909509728E-17,0.0,-1.15));
#617=DIRECTION('',(6.12323399573677E-17,0.0,-1.0));
#618=DIRECTION('',(0.0,1.0,0.0));
#619=DIRECTION('',(-6.12323399573677E-17,-0.0,1.0));
#620=CARTESIAN_POINT('',(9.12361865364778E-16,0.0,-14.9));
#621=DIRECTION('',(6.12323399573677E-17,0.0,-1.0));
#622=DIRECTION('',(0.0,1.0,0.0));
#623=DIRECTION('',(1.29893408435324E-16,-0.707106781186548,-0.707106781186547));
#624=CARTESIAN_POINT('',(0.0,0.0,0.0));
#625=DIRECTION('',(6.12323399573676E-17,0.0,-1.0));
#626=DIRECTION('',(0.0,1.0,0.0));
#627=DIRECTION('',(4.32978028117747E-17,-0.707106781186548,0.707106781186547));
#628=DIRECTION('',(6.12323399573676E-17,0.0,-1.0));
#629=CARTESIAN_POINT('',(-2.12476219652066E-15,0.0,34.7));
#630=DIRECTION('',(6.12323399573676E-17,0.0,-1.0));
#631=DIRECTION('',(0.0,1.0,0.0));
#632=DIRECTION('',(-6.12323399573676E-17,-0.0,1.0));
#633=DIRECTION('',(-4.32978028117744E-17,0.707106781186546,-0.707106781186549));
#634=CARTESIAN_POINT('',(-2.20436423846524E-15,0.0,36.0));
#635=DIRECTION('',(6.12323399573677E-17,0.0,-1.0));
#636=DIRECTION('',(0.0,1.0,0.0));
#637=DIRECTION('',(-1.29893408435324E-16,0.707106781186546,0.707106781186549));
#638=CARTESIAN_POINT('',(-2.20436423846524E-15,0.0,36.0));
#639=DIRECTION('',(6.12323399573677E-17,0.0,-1.0));
#640=DIRECTION('',(0.0,1.0,0.0));
#641=CARTESIAN_POINT('',(-2.12476219652066E-15,0.0,34.7));
#642=DIRECTION('',(6.12323399573676E-17,0.0,-1.0));
#643=DIRECTION('',(0.0,1.0,0.0));
#644=CARTESIAN_POINT('',(0.0,0.0,0.0));
#645=DIRECTION('',(6.12323399573676E-17,0.0,-1.0));
#646=DIRECTION('',(0.0,1.0,0.0));
#647=CARTESIAN_POINT('',(7.04171909509728E-17,0.0,-1.15));
#648=DIRECTION('',(6.12323399573677E-17,0.0,-1.0));
#649=DIRECTION('',(0.0,1.0,0.0));
#650=CARTESIAN_POINT('',(9.12361865364778E-16,0.0,-14.9));
#651=DIRECTION('',(6.12323399573677E-17,0.0,-1.0));
#652=DIRECTION('',(0.0,1.0,0.0));
#653=DIRECTION('',(0.0,0.0,1.0));
#654=DIRECTION('',(1.0,0.0,0.0));
#655=CARTESIAN_POINT('',(0.0,0.0,36.000000));
#656=AXIS2_PLACEMENT_3D('PCS', #655,#653,#654);
#657=CARTESIAN_POINT('',(0.0,0.0,0.000000));
#658=AXIS2_PLACEMENT_3D('MCS', #657,#653,#654);
#659=CARTESIAN_POINT('',(0.0,0.0,-26.000000));
#660=AXIS2_PLACEMENT_3D('CIP', #659,#653,#654);
ENDSEC;
END-ISO-10303-21;
