ISO-10303-21;
HEADER;
FILE_DESCRIPTION(('STEP AP214'),'1');
FILE_NAME('607897400-000-00-E43.stp','2023-01-25T11:51:08',(' '),(' '),'Spatial InterOp 3D',' ',' ');
FILE_SCHEMA(('AUTOMOTIVE_DESIGN { 1 0 10303 214 1 1 1 1 }'));
ENDSEC;
DATA;
#1=MECHANICAL_DESIGN_GEOMETRIC_PRESENTATION_REPRESENTATION(' ',(#12,#13,#14,#15,#16,#17,#18,#19,#20,#21,#22,#23,#24,#25),#8);
#2=PRODUCT_DEFINITION_CONTEXT('',#26,'design');
#3=APPLICATION_PROTOCOL_DEFINITION('INTERNATIONAL STANDARD','automotive_design',1994,#26);
#4=PRODUCT_CATEGORY_RELATIONSHIP('NONE','NONE',#27,#28);
#5=SHAPE_DEFINITION_REPRESENTATION(#29,#30);
#6=SHAPE_DEFINITION_REPRESENTATION(#29,#31);
#7=SHAPE_DEFINITION_REPRESENTATION(#29,#32);
#8= (GEOMETRIC_REPRESENTATION_CONTEXT(3)GLOBAL_UNCERTAINTY_ASSIGNED_CONTEXT((#35))GLOBAL_UNIT_ASSIGNED_CONTEXT((#37,#38,#39))REPRESENTATION_CONTEXT('NONE','WORKSPACE'));
#12=STYLED_ITEM('',(#41),#42);
#13=STYLED_ITEM('',(#43),#44);
#14=STYLED_ITEM('',(#45),#46);
#15=STYLED_ITEM('',(#47),#48);
#16=STYLED_ITEM('',(#49),#50);
#17=STYLED_ITEM('',(#51),#52);
#18=STYLED_ITEM('',(#53),#54);
#19=STYLED_ITEM('',(#55),#56);
#20=STYLED_ITEM('',(#57),#58);
#21=STYLED_ITEM('',(#59),#60);
#22=STYLED_ITEM('',(#61),#62);
#23=STYLED_ITEM('',(#63),#64);
#24=STYLED_ITEM('',(#65),#66);
#25=STYLED_ITEM('',(#67),#68);
#26=APPLICATION_CONTEXT(' ');
#27=PRODUCT_CATEGORY('part','NONE');
#28=PRODUCT_RELATED_PRODUCT_CATEGORY('detail',' ',(#69));
#29=PRODUCT_DEFINITION_SHAPE('NONE','NONE',#70);
#30=ADVANCED_BREP_SHAPE_REPRESENTATION('1',(#71,#72),#8);
#31=ADVANCED_BREP_SHAPE_REPRESENTATION('2',(#73,#74),#8);
#32=GEOMETRICALLY_BOUNDED_SURFACE_SHAPE_REPRESENTATION('3',(#75,#76),#8);
#35=UNCERTAINTY_MEASURE_WITH_UNIT(LENGTH_MEASURE(1.0E-06),#37,'','');
#37= (CONVERSION_BASED_UNIT('MILLIMETRE',#79)LENGTH_UNIT()NAMED_UNIT(#82));
#38= (NAMED_UNIT(#84)PLANE_ANGLE_UNIT()SI_UNIT($,.RADIAN.));
#39= (NAMED_UNIT(#84)SOLID_ANGLE_UNIT()SI_UNIT($,.STERADIAN.));
#41=PRESENTATION_STYLE_ASSIGNMENT((#90));
#42=COMPOSITE_CURVE('',(#91),.U.);
#43=PRESENTATION_STYLE_ASSIGNMENT((#92));
#44=COMPOSITE_CURVE('',(#93,#94,#95,#96,#97),.U.);
#45=PRESENTATION_STYLE_ASSIGNMENT((#98));
#46=ADVANCED_FACE('',(#99),#100,.T.);
#47=PRESENTATION_STYLE_ASSIGNMENT((#101));
#48=ADVANCED_FACE('',(#102),#103,.T.);
#49=PRESENTATION_STYLE_ASSIGNMENT((#104));
#50=ADVANCED_FACE('',(#105),#106,.T.);
#51=PRESENTATION_STYLE_ASSIGNMENT((#107));
#52=ADVANCED_FACE('',(#108),#109,.T.);
#53=PRESENTATION_STYLE_ASSIGNMENT((#110));
#54=ADVANCED_FACE('',(#111),#112,.T.);
#55=PRESENTATION_STYLE_ASSIGNMENT((#113));
#56=ADVANCED_FACE('',(#114),#115,.T.);
#57=PRESENTATION_STYLE_ASSIGNMENT((#116));
#58=COMPOSITE_CURVE('',(#117,#118,#119,#120),.U.);
#59=PRESENTATION_STYLE_ASSIGNMENT((#121));
#60=ADVANCED_FACE('',(#122),#123,.T.);
#61=PRESENTATION_STYLE_ASSIGNMENT((#124));
#62=ADVANCED_FACE('',(#125),#126,.T.);
#63=PRESENTATION_STYLE_ASSIGNMENT((#127));
#64=ADVANCED_FACE('',(#128),#129,.T.);
#65=PRESENTATION_STYLE_ASSIGNMENT((#130));
#66=ADVANCED_FACE('',(#131),#132,.T.);
#67=PRESENTATION_STYLE_ASSIGNMENT((#133));
#68=ADVANCED_FACE('',(#134),#135,.T.);
#69=PRODUCT('1','','PART--DESC',(#136));
#70=PRODUCT_DEFINITION('','NONE',#137,#2);
#71=MANIFOLD_SOLID_BREP('1',#138);
#72=AXIS2_PLACEMENT_3D('',#139,#140,#141);
#73=MANIFOLD_SOLID_BREP('2',#142);
#74=AXIS2_PLACEMENT_3D('',#143,#144,#145);
#75=GEOMETRIC_SET('3',(#42,#44,#58));
#76=AXIS2_PLACEMENT_3D('',#146,#147,#148);
#79=LENGTH_MEASURE_WITH_UNIT(LENGTH_MEASURE(1.0),#149);
#82=DIMENSIONAL_EXPONENTS(1.0,0.0,0.0,0.0,0.0,0.0,0.0);
#84=DIMENSIONAL_EXPONENTS(0.0,0.0,0.0,0.0,0.0,0.0,0.0);
#90=CURVE_STYLE('',#150,POSITIVE_LENGTH_MEASURE(1.0E-06),#151);
#91=COMPOSITE_CURVE_SEGMENT(.CONTINUOUS.,.T.,#152);
#92=CURVE_STYLE('',#153,POSITIVE_LENGTH_MEASURE(1.0E-06),#154);
#93=COMPOSITE_CURVE_SEGMENT(.CONTINUOUS.,.T.,#155);
#94=COMPOSITE_CURVE_SEGMENT(.CONTINUOUS.,.T.,#156);
#95=COMPOSITE_CURVE_SEGMENT(.CONTINUOUS.,.T.,#157);
#96=COMPOSITE_CURVE_SEGMENT(.CONTINUOUS.,.T.,#158);
#97=COMPOSITE_CURVE_SEGMENT(.CONTINUOUS.,.T.,#159);
#98=SURFACE_STYLE_USAGE(.BOTH.,#160);
#99=FACE_OUTER_BOUND('',#161,.T.);
#100=CYLINDRICAL_SURFACE('',#162,5.0000000000004);
#101=SURFACE_STYLE_USAGE(.BOTH.,#163);
#102=FACE_OUTER_BOUND('',#164,.T.);
#103=CONICAL_SURFACE('',#165,4.50000000000045,0.785398163397448);
#104=SURFACE_STYLE_USAGE(.BOTH.,#166);
#105=FACE_OUTER_BOUND('',#167,.T.);
#106=PLANE('',#168);
#107=SURFACE_STYLE_USAGE(.BOTH.,#169);
#108=FACE_OUTER_BOUND('',#170,.T.);
#109=CONICAL_SURFACE('',#171,4.50000000000045,0.785398163397448);
#110=SURFACE_STYLE_USAGE(.BOTH.,#172);
#111=FACE_OUTER_BOUND('',#173,.T.);
#112=CYLINDRICAL_SURFACE('',#174,5.0000000000004);
#113=SURFACE_STYLE_USAGE(.BOTH.,#175);
#114=FACE_OUTER_BOUND('',#176,.T.);
#115=PLANE('',#177);
#116=CURVE_STYLE('',#178,POSITIVE_LENGTH_MEASURE(1.0E-06),#179);
#117=COMPOSITE_CURVE_SEGMENT(.CONTINUOUS.,.T.,#180);
#118=COMPOSITE_CURVE_SEGMENT(.CONTINUOUS.,.T.,#181);
#119=COMPOSITE_CURVE_SEGMENT(.CONTINUOUS.,.T.,#182);
#120=COMPOSITE_CURVE_SEGMENT(.CONTINUOUS.,.T.,#183);
#121=SURFACE_STYLE_USAGE(.BOTH.,#184);
#122=FACE_OUTER_BOUND('',#185,.T.);
#123=CONICAL_SURFACE('',#186,2.50000000000028,0.785398163397448);
#124=SURFACE_STYLE_USAGE(.BOTH.,#187);
#125=FACE_OUTER_BOUND('',#188,.T.);
#126=CYLINDRICAL_SURFACE('',#189,5.00000000000034);
#127=SURFACE_STYLE_USAGE(.BOTH.,#190);
#128=FACE_OUTER_BOUND('',#191,.T.);
#129=PLANE('',#192);
#130=SURFACE_STYLE_USAGE(.BOTH.,#193);
#131=FACE_OUTER_BOUND('',#194,.T.);
#132=CYLINDRICAL_SURFACE('',#195,5.00000000000034);
#133=SURFACE_STYLE_USAGE(.BOTH.,#196);
#134=FACE_OUTER_BOUND('',#197,.T.);
#135=CONICAL_SURFACE('',#198,2.50000000000028,0.785398163397448);
#136=PRODUCT_CONTEXT('',#26,'mechanical');
#137=PRODUCT_DEFINITION_FORMATION_WITH_SPECIFIED_SOURCE(' ','NONE',#69,.NOT_KNOWN.);
#138=CLOSED_SHELL('',(#46,#48,#50,#52,#54,#56));
#139=CARTESIAN_POINT('',(0.0,0.0,0.0));
#140=DIRECTION('',(0.0,0.0,1.0));
#141=DIRECTION('',(1.0,0.0,0.0));
#142=CLOSED_SHELL('',(#60,#62,#64,#66,#68));
#143=CARTESIAN_POINT('',(0.0,0.0,0.0));
#144=DIRECTION('',(0.0,0.0,1.0));
#145=DIRECTION('',(1.0,0.0,0.0));
#146=CARTESIAN_POINT('',(0.0,0.0,0.0));
#147=DIRECTION('',(0.0,0.0,1.0));
#148=DIRECTION('',(1.0,0.0,0.0));
#149= (NAMED_UNIT(#82)LENGTH_UNIT()SI_UNIT(.MILLI.,.METRE.));
#150=DRAUGHTING_PRE_DEFINED_CURVE_FONT('continuous');
#151=COLOUR_RGB('',0.0,1.0,0.0);
#152=TRIMMED_CURVE('',#200,(PARAMETER_VALUE(0.0)),(PARAMETER_VALUE(5.00000000000011)),.T.,.UNSPECIFIED.);
#153=DRAUGHTING_PRE_DEFINED_CURVE_FONT('continuous');
#154=COLOUR_RGB('',0.498039215803146,0.498039215803146,0.498039215803146);
#155=TRIMMED_CURVE('',#201,(PARAMETER_VALUE(0.0)),(PARAMETER_VALUE(5.00000000000011)),.T.,.UNSPECIFIED.);
#156=TRIMMED_CURVE('',#202,(PARAMETER_VALUE(0.0)),(PARAMETER_VALUE(48.9999999999996)),.T.,.UNSPECIFIED.);
#157=TRIMMED_CURVE('',#203,(PARAMETER_VALUE(0.0)),(PARAMETER_VALUE(1.41421356237309)),.T.,.UNSPECIFIED.);
#158=TRIMMED_CURVE('',#204,(PARAMETER_VALUE(0.0)),(PARAMETER_VALUE(4.00000000000023)),.T.,.UNSPECIFIED.);
#159=TRIMMED_CURVE('',#205,(PARAMETER_VALUE(0.0)),(PARAMETER_VALUE(50.0)),.T.,.UNSPECIFIED.);
#160=SURFACE_SIDE_STYLE('',(#206));
#161=EDGE_LOOP('',(#207,#208,#209,#210));
#162=AXIS2_PLACEMENT_3D('',#211,#212,#213);
#163=SURFACE_SIDE_STYLE('',(#214));
#164=EDGE_LOOP('',(#215,#216,#217,#218));
#165=AXIS2_PLACEMENT_3D('',#219,#220,#221);
#166=SURFACE_SIDE_STYLE('',(#222));
#167=EDGE_LOOP('',(#223,#224));
#168=AXIS2_PLACEMENT_3D('',#225,#226,#227);
#169=SURFACE_SIDE_STYLE('',(#228));
#170=EDGE_LOOP('',(#229,#230,#231,#232));
#171=AXIS2_PLACEMENT_3D('',#233,#234,#235);
#172=SURFACE_SIDE_STYLE('',(#236));
#173=EDGE_LOOP('',(#237,#238,#239,#240));
#174=AXIS2_PLACEMENT_3D('',#241,#242,#243);
#175=SURFACE_SIDE_STYLE('',(#244));
#176=EDGE_LOOP('',(#245,#246));
#177=AXIS2_PLACEMENT_3D('',#247,#248,#249);
#178=DRAUGHTING_PRE_DEFINED_CURVE_FONT('continuous');
#179=COLOUR_RGB('',0.0,0.0,1.0);
#180=TRIMMED_CURVE('',#250,(PARAMETER_VALUE(0.0)),(PARAMETER_VALUE(7.07106781186564)),.T.,.UNSPECIFIED.);
#181=TRIMMED_CURVE('',#251,(PARAMETER_VALUE(0.0)),(PARAMETER_VALUE(16.9999999999999)),.T.,.UNSPECIFIED.);
#182=TRIMMED_CURVE('',#252,(PARAMETER_VALUE(0.0)),(PARAMETER_VALUE(5.00000000000011)),.T.,.UNSPECIFIED.);
#183=TRIMMED_CURVE('',#253,(PARAMETER_VALUE(0.0)),(PARAMETER_VALUE(21.9999999999999)),.T.,.UNSPECIFIED.);
#184=SURFACE_SIDE_STYLE('',(#254));
#185=EDGE_LOOP('',(#255,#256,#257));
#186=AXIS2_PLACEMENT_3D('',#258,#259,#260);
#187=SURFACE_SIDE_STYLE('',(#261));
#188=EDGE_LOOP('',(#262,#263,#264,#265));
#189=AXIS2_PLACEMENT_3D('',#266,#267,#268);
#190=SURFACE_SIDE_STYLE('',(#269));
#191=EDGE_LOOP('',(#270,#271));
#192=AXIS2_PLACEMENT_3D('',#272,#273,#274);
#193=SURFACE_SIDE_STYLE('',(#275));
#194=EDGE_LOOP('',(#276,#277,#278,#279));
#195=AXIS2_PLACEMENT_3D('',#280,#281,#282);
#196=SURFACE_SIDE_STYLE('',(#283));
#197=EDGE_LOOP('',(#284,#285,#286));
#198=AXIS2_PLACEMENT_3D('',#287,#288,#289);
#200=LINE('',#290,#291);
#201=LINE('',#292,#293);
#202=LINE('',#294,#295);
#203=LINE('',#296,#297);
#204=LINE('',#298,#299);
#205=LINE('',#300,#301);
#206=SURFACE_STYLE_FILL_AREA(#302);
#207=ORIENTED_EDGE('',*,*,#303,.F.);
#208=ORIENTED_EDGE('',*,*,#304,.T.);
#209=ORIENTED_EDGE('',*,*,#305,.F.);
#210=ORIENTED_EDGE('',*,*,#306,.F.);
#211=CARTESIAN_POINT('',(-8.87868929381827E-16,-2.27373675443232E-13,14.4999999999999));
#212=DIRECTION('',(6.12323399573677E-17,0.0,-1.0));
#213=DIRECTION('',(0.0,1.0,0.0));
#214=SURFACE_STYLE_FILL_AREA(#307);
#215=ORIENTED_EDGE('',*,*,#308,.F.);
#216=ORIENTED_EDGE('',*,*,#309,.T.);
#217=ORIENTED_EDGE('',*,*,#310,.F.);
#218=ORIENTED_EDGE('',*,*,#304,.F.);
#219=CARTESIAN_POINT('',(-2.41867742831601E-15,-2.27373675443232E-13,39.4999999999997));
#220=DIRECTION('',(6.12323399573677E-17,-0.0,-1.0));
#221=DIRECTION('',(0.0,1.0,0.0));
#222=SURFACE_STYLE_FILL_AREA(#311);
#223=ORIENTED_EDGE('',*,*,#309,.F.);
#224=ORIENTED_EDGE('',*,*,#312,.F.);
#225=CARTESIAN_POINT('',(-2.4492935982947E-15,2.00000000000011,39.9999999999999));
#226=DIRECTION('',(-6.12323399573677E-17,8.52651282912072E-14,1.0));
#227=DIRECTION('',(-5.22098332203576E-30,-1.0,8.52651282912072E-14));
#228=SURFACE_STYLE_FILL_AREA(#313);
#229=ORIENTED_EDGE('',*,*,#308,.T.);
#230=ORIENTED_EDGE('',*,*,#314,.F.);
#231=ORIENTED_EDGE('',*,*,#310,.T.);
#232=ORIENTED_EDGE('',*,*,#312,.T.);
#233=CARTESIAN_POINT('',(-2.41867742831601E-15,-2.27373675443232E-13,39.4999999999997));
#234=DIRECTION('',(6.12323399573677E-17,-0.0,-1.0));
#235=DIRECTION('',(0.0,1.0,0.0));
#236=SURFACE_STYLE_FILL_AREA(#315);
#237=ORIENTED_EDGE('',*,*,#303,.T.);
#238=ORIENTED_EDGE('',*,*,#316,.F.);
#239=ORIENTED_EDGE('',*,*,#305,.T.);
#240=ORIENTED_EDGE('',*,*,#314,.T.);
#241=CARTESIAN_POINT('',(-8.87868929381827E-16,-2.27373675443232E-13,14.4999999999999));
#242=DIRECTION('',(6.12323399573677E-17,0.0,-1.0));
#243=DIRECTION('',(0.0,1.0,0.0));
#244=SURFACE_STYLE_FILL_AREA(#317);
#245=ORIENTED_EDGE('',*,*,#306,.T.);
#246=ORIENTED_EDGE('',*,*,#316,.T.);
#247=CARTESIAN_POINT('',(6.12323399573671E-16,2.50000000000006,-9.99999999999991));
#248=DIRECTION('',(6.12323399573677E-17,1.13686837721613E-14,-1.0));
#249=DIRECTION('',(-6.96131109604792E-31,1.0,1.13686837721613E-14));
#250=LINE('',#318,#319);
#251=LINE('',#320,#321);
#252=LINE('',#322,#323);
#253=LINE('',#324,#325);
#254=SURFACE_STYLE_FILL_AREA(#326);
#255=ORIENTED_EDGE('',*,*,#327,.F.);
#256=ORIENTED_EDGE('',*,*,#328,.F.);
#257=ORIENTED_EDGE('',*,*,#329,.T.);
#258=CARTESIAN_POINT('',(1.80635402874234E-15,-2.27373675443232E-13,-29.4999999999998));
#259=DIRECTION('',(-6.12323399573677E-17,-0.0,1.0));
#260=DIRECTION('',(0.0,1.0,0.0));
#261=SURFACE_STYLE_FILL_AREA(#330);
#262=ORIENTED_EDGE('',*,*,#331,.F.);
#263=ORIENTED_EDGE('',*,*,#332,.T.);
#264=ORIENTED_EDGE('',*,*,#333,.F.);
#265=ORIENTED_EDGE('',*,*,#329,.F.);
#266=CARTESIAN_POINT('',(1.13279828921129E-15,-2.27373675443232E-13,-18.4999999999998));
#267=DIRECTION('',(6.12323399573676E-17,0.0,-1.0));
#268=DIRECTION('',(0.0,1.0,0.0));
#269=SURFACE_STYLE_FILL_AREA(#334);
#270=ORIENTED_EDGE('',*,*,#332,.F.);
#271=ORIENTED_EDGE('',*,*,#335,.F.);
#272=CARTESIAN_POINT('',(6.12323399573671E-16,2.50000000000006,-9.99999999999991));
#273=DIRECTION('',(-6.12323399573677E-17,-1.13686837721613E-14,1.0));
#274=DIRECTION('',(6.96131109604792E-31,-1.0,-1.13686837721613E-14));
#275=SURFACE_STYLE_FILL_AREA(#336);
#276=ORIENTED_EDGE('',*,*,#331,.T.);
#277=ORIENTED_EDGE('',*,*,#337,.F.);
#278=ORIENTED_EDGE('',*,*,#333,.T.);
#279=ORIENTED_EDGE('',*,*,#335,.T.);
#280=CARTESIAN_POINT('',(1.13279828921129E-15,-2.27373675443232E-13,-18.4999999999998));
#281=DIRECTION('',(6.12323399573676E-17,0.0,-1.0));
#282=DIRECTION('',(0.0,1.0,0.0));
#283=SURFACE_STYLE_FILL_AREA(#338);
#284=ORIENTED_EDGE('',*,*,#327,.T.);
#285=ORIENTED_EDGE('',*,*,#337,.T.);
#286=ORIENTED_EDGE('',*,*,#328,.T.);
#287=CARTESIAN_POINT('',(1.80635402874234E-15,-2.27373675443232E-13,-29.4999999999998));
#288=DIRECTION('',(-6.12323399573677E-17,-0.0,1.0));
#289=DIRECTION('',(0.0,1.0,0.0));
#290=CARTESIAN_POINT('',(0.0,5.0,0.0));
#291=VECTOR('',#339,1.0);
#292=CARTESIAN_POINT('',(6.12323399573673E-16,0.0,-9.99999999999994));
#293=VECTOR('',#340,1.0);
#294=CARTESIAN_POINT('',(6.1232339957367E-16,5.00000000000011,-9.99999999999989));
#295=VECTOR('',#341,1.0);
#296=CARTESIAN_POINT('',(-2.38806125833732E-15,5.00000000000023,38.9999999999997));
#297=VECTOR('',#342,1.0);
#298=CARTESIAN_POINT('',(-2.44929359829469E-15,4.00000000000023,39.9999999999997));
#299=VECTOR('',#343,1.0);
#300=CARTESIAN_POINT('',(-2.44929359829471E-15,0.0,40.0000000000001));
#301=VECTOR('',#344,1.0);
#302=FILL_AREA_STYLE('',(#345));
#303=EDGE_CURVE('',#346,#347,#348,.T.);
#304=EDGE_CURVE('',#346,#349,#350,.T.);
#305=EDGE_CURVE('',#351,#349,#352,.T.);
#306=EDGE_CURVE('',#347,#351,#353,.T.);
#307=FILL_AREA_STYLE('',(#354));
#308=EDGE_CURVE('',#355,#346,#356,.T.);
#309=EDGE_CURVE('',#355,#357,#358,.T.);
#310=EDGE_CURVE('',#349,#357,#359,.T.);
#311=FILL_AREA_STYLE('',(#360));
#312=EDGE_CURVE('',#357,#355,#361,.T.);
#313=FILL_AREA_STYLE('',(#362));
#314=EDGE_CURVE('',#349,#346,#363,.T.);
#315=FILL_AREA_STYLE('',(#364));
#316=EDGE_CURVE('',#351,#347,#365,.T.);
#317=FILL_AREA_STYLE('',(#366));
#318=CARTESIAN_POINT('',(1.95943487863576E-15,0.0,-31.9999999999999));
#319=VECTOR('',#367,1.0);
#320=CARTESIAN_POINT('',(1.65327317884891E-15,5.00000000000011,-26.9999999999998));
#321=VECTOR('',#368,1.0);
#322=CARTESIAN_POINT('',(6.1232339957367E-16,5.00000000000011,-9.99999999999989));
#323=VECTOR('',#369,1.0);
#324=CARTESIAN_POINT('',(6.12323399573673E-16,0.0,-9.99999999999994));
#325=VECTOR('',#370,1.0);
#326=FILL_AREA_STYLE('',(#371));
#327=EDGE_CURVE('',#372,#373,#374,.T.);
#328=EDGE_CURVE('',#375,#372,#376,.T.);
#329=EDGE_CURVE('',#375,#373,#377,.T.);
#330=FILL_AREA_STYLE('',(#378));
#331=EDGE_CURVE('',#379,#375,#380,.T.);
#332=EDGE_CURVE('',#379,#381,#382,.T.);
#333=EDGE_CURVE('',#373,#381,#383,.T.);
#334=FILL_AREA_STYLE('',(#384));
#335=EDGE_CURVE('',#381,#379,#385,.T.);
#336=FILL_AREA_STYLE('',(#386));
#337=EDGE_CURVE('',#373,#375,#387,.T.);
#338=FILL_AREA_STYLE('',(#388));
#339=DIRECTION('',(-1.39226221920958E-30,-1.0,2.27373675443227E-14));
#340=DIRECTION('',(-6.9025329206837E-31,1.0,1.13686837721613E-14));
#341=DIRECTION('',(-6.12323399573677E-17,2.32013954533912E-15,1.0));
#342=DIRECTION('',(-4.32978028117746E-17,-0.707106781186547,0.707106781186547));
#343=DIRECTION('',(-5.22620349708891E-30,-1.0,8.52651282912072E-14));
#344=DIRECTION('',(6.12323399573677E-17,0.0,-1.0));
#345=FILL_AREA_STYLE_COLOUR('',#389);
#346=VERTEX_POINT('',#390);
#347=VERTEX_POINT('',#391);
#348=LINE('',#392,#393);
#349=VERTEX_POINT('',#394);
#350=CIRCLE('',#395,5.00000000000045);
#351=VERTEX_POINT('',#396);
#352=LINE('',#397,#398);
#353=CIRCLE('',#399,5.00000000000034);
#354=FILL_AREA_STYLE_COLOUR('',#400);
#355=VERTEX_POINT('',#401);
#356=LINE('',#402,#403);
#357=VERTEX_POINT('',#404);
#358=CIRCLE('',#405,4.00000000000045);
#359=LINE('',#406,#407);
#360=FILL_AREA_STYLE_COLOUR('',#408);
#361=CIRCLE('',#409,4.00000000000045);
#362=FILL_AREA_STYLE_COLOUR('',#410);
#363=CIRCLE('',#411,5.00000000000045);
#364=FILL_AREA_STYLE_COLOUR('',#412);
#365=CIRCLE('',#413,5.00000000000034);
#366=FILL_AREA_STYLE_COLOUR('',#414);
#367=DIRECTION('',(-4.32978028117747E-17,0.707106781186547,0.707106781186547));
#368=DIRECTION('',(-6.12323399573677E-17,0.0,1.0));
#369=DIRECTION('',(6.9025329206837E-31,-1.0,-1.13686837721613E-14));
#370=DIRECTION('',(6.12323399573677E-17,0.0,-1.0));
#371=FILL_AREA_STYLE_COLOUR('',#415);
#372=VERTEX_POINT('',#416);
#373=VERTEX_POINT('',#417);
#374=LINE('',#418,#419);
#375=VERTEX_POINT('',#420);
#376=LINE('',#421,#422);
#377=CIRCLE('',#423,5.00000000000034);
#378=FILL_AREA_STYLE_COLOUR('',#424);
#379=VERTEX_POINT('',#425);
#380=LINE('',#426,#427);
#381=VERTEX_POINT('',#428);
#382=CIRCLE('',#429,5.00000000000034);
#383=LINE('',#430,#431);
#384=FILL_AREA_STYLE_COLOUR('',#432);
#385=CIRCLE('',#433,5.00000000000034);
#386=FILL_AREA_STYLE_COLOUR('',#434);
#387=CIRCLE('',#435,5.00000000000034);
#388=FILL_AREA_STYLE_COLOUR('',#436);
#389=COLOUR_RGB('',0.498039215803146,0.498039215803146,0.498039215803146);
#390=CARTESIAN_POINT('',(-2.38806125833732E-15,5.00000000000023,38.9999999999997));
#391=CARTESIAN_POINT('',(6.1232339957367E-16,5.00000000000011,-9.99999999999989));
#392=CARTESIAN_POINT('',(-1.50019232895555E-15,5.00000000000017,14.4999999999999));
#393=VECTOR('',#437,1.0);
#394=CARTESIAN_POINT('',(-1.77573785876359E-15,-5.00000000000068,38.9999999999997));
#395=AXIS2_PLACEMENT_3D('',#438,#439,#440);
#396=CARTESIAN_POINT('',(1.22464679914739E-15,-5.00000000000057,-9.99999999999989));
#397=CARTESIAN_POINT('',(-2.75545529808101E-16,-5.00000000000063,14.4999999999999));
#398=VECTOR('',#441,1.0);
#399=AXIS2_PLACEMENT_3D('',#442,#443,#444);
#400=COLOUR_RGB('',0.498039215803146,0.498039215803146,0.498039215803146);
#401=CARTESIAN_POINT('',(-2.44929359829469E-15,4.00000000000023,39.9999999999997));
#402=CARTESIAN_POINT('',(-2.96976848793237E-15,4.50000000000023,39.4999999999997));
#403=VECTOR('',#445,1.0);
#404=CARTESIAN_POINT('',(-1.95943487863569E-15,-4.00000000000068,39.9999999999997));
#405=AXIS2_PLACEMENT_3D('',#446,#447,#448);
#406=CARTESIAN_POINT('',(-1.86758636869964E-15,-4.50000000000068,39.4999999999997));
#407=VECTOR('',#449,1.0);
#408=COLOUR_RGB('',0.498039215803146,0.498039215803146,0.498039215803146);
#409=AXIS2_PLACEMENT_3D('',#450,#451,#452);
#410=COLOUR_RGB('',0.498039215803146,0.498039215803146,0.498039215803146);
#411=AXIS2_PLACEMENT_3D('',#453,#454,#455);
#412=COLOUR_RGB('',0.498039215803146,0.498039215803146,0.498039215803146);
#413=AXIS2_PLACEMENT_3D('',#456,#457,#458);
#414=COLOUR_RGB('',0.498039215803146,0.498039215803146,0.498039215803146);
#415=COLOUR_RGB('',0.800000011920929,0.800000011920929,0.800000011920929);
#416=CARTESIAN_POINT('',(1.95943487863576E-15,0.0,-31.9999999999999));
#417=CARTESIAN_POINT('',(2.26559657842263E-15,-5.00000000000057,-26.9999999999998));
#418=CARTESIAN_POINT('',(2.11251572852921E-15,-2.50000000000051,-29.4999999999998));
#419=VECTOR('',#459,1.0);
#420=CARTESIAN_POINT('',(1.65327317884891E-15,5.00000000000011,-26.9999999999998));
#421=CARTESIAN_POINT('',(1.50019232895546E-15,2.50000000000006,-29.4999999999998));
#422=VECTOR('',#460,1.0);
#423=AXIS2_PLACEMENT_3D('',#461,#462,#463);
#424=COLOUR_RGB('',0.800000011920929,0.800000011920929,0.800000011920929);
#425=CARTESIAN_POINT('',(6.1232339957367E-16,5.00000000000011,-9.99999999999989));
#426=CARTESIAN_POINT('',(5.20474889637573E-16,5.00000000000011,-18.4999999999998));
#427=VECTOR('',#464,1.0);
#428=CARTESIAN_POINT('',(1.22464679914739E-15,-5.00000000000057,-9.99999999999989));
#429=AXIS2_PLACEMENT_3D('',#465,#466,#467);
#430=CARTESIAN_POINT('',(1.74512168878501E-15,-5.00000000000057,-18.4999999999998));
#431=VECTOR('',#468,1.0);
#432=COLOUR_RGB('',0.800000011920929,0.800000011920929,0.800000011920929);
#433=AXIS2_PLACEMENT_3D('',#469,#470,#471);
#434=COLOUR_RGB('',0.800000011920929,0.800000011920929,0.800000011920929);
#435=AXIS2_PLACEMENT_3D('',#472,#473,#474);
#436=COLOUR_RGB('',0.800000011920929,0.800000011920929,0.800000011920929);
#437=DIRECTION('',(6.12323399573677E-17,0.0,-1.0));
#438=CARTESIAN_POINT('',(-2.38806125833732E-15,-2.27373675443232E-13,38.9999999999997));
#439=DIRECTION('',(6.12323399573677E-17,0.0,-1.0));
#440=DIRECTION('',(0.0,1.0,0.0));
#441=DIRECTION('',(-6.12323399573677E-17,-0.0,1.0));
#442=CARTESIAN_POINT('',(6.1232339957367E-16,-2.27373675443232E-13,-9.99999999999989));
#443=DIRECTION('',(6.12323399573676E-17,0.0,-1.0));
#444=DIRECTION('',(0.0,1.0,0.0));
#445=DIRECTION('',(-4.32978028117747E-17,0.707106781186547,-0.707106781186548));
#446=CARTESIAN_POINT('',(-2.44929359829469E-15,-2.27373675443232E-13,39.9999999999997));
#447=DIRECTION('',(6.12323399573677E-17,0.0,-1.0));
#448=DIRECTION('',(0.0,1.0,0.0));
#449=DIRECTION('',(-1.29893408435324E-16,0.707106781186547,0.707106781186548));
#450=CARTESIAN_POINT('',(-2.44929359829469E-15,-2.27373675443232E-13,39.9999999999997));
#451=DIRECTION('',(6.12323399573677E-17,0.0,-1.0));
#452=DIRECTION('',(0.0,1.0,0.0));
#453=CARTESIAN_POINT('',(-2.38806125833732E-15,-2.27373675443232E-13,38.9999999999997));
#454=DIRECTION('',(6.12323399573677E-17,0.0,-1.0));
#455=DIRECTION('',(0.0,1.0,0.0));
#456=CARTESIAN_POINT('',(6.1232339957367E-16,-2.27373675443232E-13,-9.99999999999989));
#457=DIRECTION('',(6.12323399573676E-17,0.0,-1.0));
#458=DIRECTION('',(0.0,1.0,0.0));
#459=DIRECTION('',(4.32978028117746E-17,-0.707106781186547,0.707106781186548));
#460=DIRECTION('',(1.29893408435324E-16,-0.707106781186547,-0.707106781186548));
#461=CARTESIAN_POINT('',(1.65327317884891E-15,-2.27373675443232E-13,-26.9999999999998));
#462=DIRECTION('',(6.12323399573676E-17,0.0,-1.0));
#463=DIRECTION('',(0.0,1.0,0.0));
#464=DIRECTION('',(6.12323399573677E-17,0.0,-1.0));
#465=CARTESIAN_POINT('',(6.1232339957367E-16,-2.27373675443232E-13,-9.99999999999989));
#466=DIRECTION('',(6.12323399573676E-17,0.0,-1.0));
#467=DIRECTION('',(0.0,1.0,0.0));
#468=DIRECTION('',(-6.12323399573677E-17,-0.0,1.0));
#469=CARTESIAN_POINT('',(6.1232339957367E-16,-2.27373675443232E-13,-9.99999999999989));
#470=DIRECTION('',(6.12323399573676E-17,0.0,-1.0));
#471=DIRECTION('',(0.0,1.0,0.0));
#472=CARTESIAN_POINT('',(1.65327317884891E-15,-2.27373675443232E-13,-26.9999999999998));
#473=DIRECTION('',(6.12323399573676E-17,0.0,-1.0));
#474=DIRECTION('',(0.0,1.0,0.0));
#475=DIRECTION('',(0.0,0.0,1.0));
#476=DIRECTION('',(1.0,0.0,0.0));
#477=CARTESIAN_POINT('',(0.0,0.0,40.000000));
#478=AXIS2_PLACEMENT_3D('PCS', #477,#475,#476);
#479=CARTESIAN_POINT('',(0.0,0.0,0.000000));
#480=AXIS2_PLACEMENT_3D('MCS', #479,#475,#476);
#481=CARTESIAN_POINT('',(0.0,0.0,-32.000000));
#482=AXIS2_PLACEMENT_3D('CIP', #481,#475,#476);
ENDSEC;
END-ISO-10303-21;
