ISO-10303-21;
HEADER;
FILE_DESCRIPTION(('STEP AP214'),'1');
FILE_NAME('608161179-000-00-E43.stp','2024-11-08T09:26:00',(' '),(' '),'Spatial InterOp 3D',' ',' ');
FILE_SCHEMA(('AUTOMOTIVE_DESIGN { 1 0 10303 214 1 1 1 1 }'));
ENDSEC;
DATA;
#1=MECHANICAL_DESIGN_GEOMETRIC_PRESENTATION_REPRESENTATION(' ',(#12,#13,#14,#15,#16,#17,#18,#19,#20,#21,#22,#23,#24,#25,#26,#27,#28,#29,#30,#31,#32,#33,#34,#35,#36,#37,#38),#8);
#2=PRODUCT_DEFINITION_CONTEXT('',#39,'design');
#3=APPLICATION_PROTOCOL_DEFINITION('INTERNATIONAL STANDARD','automotive_design',1994,#39);
#4=PRODUCT_CATEGORY_RELATIONSHIP('NONE','NONE',#40,#41);
#5=SHAPE_DEFINITION_REPRESENTATION(#42,#43);
#6=SHAPE_DEFINITION_REPRESENTATION(#42,#44);
#7=SHAPE_DEFINITION_REPRESENTATION(#42,#45);
#8= (GEOMETRIC_REPRESENTATION_CONTEXT(3)GLOBAL_UNCERTAINTY_ASSIGNED_CONTEXT((#48))GLOBAL_UNIT_ASSIGNED_CONTEXT((#50,#51,#52))REPRESENTATION_CONTEXT('NONE','WORKSPACE'));
#12=STYLED_ITEM('',(#54),#55);
#13=STYLED_ITEM('',(#56),#57);
#14=STYLED_ITEM('',(#58),#59);
#15=STYLED_ITEM('',(#60),#61);
#16=STYLED_ITEM('',(#62),#63);
#17=STYLED_ITEM('',(#64),#65);
#18=STYLED_ITEM('',(#66),#67);
#19=STYLED_ITEM('',(#68),#69);
#20=STYLED_ITEM('',(#70),#71);
#21=STYLED_ITEM('',(#72),#73);
#22=STYLED_ITEM('',(#74),#75);
#23=STYLED_ITEM('',(#76),#77);
#24=STYLED_ITEM('',(#78),#79);
#25=STYLED_ITEM('',(#80),#81);
#26=STYLED_ITEM('',(#82),#83);
#27=STYLED_ITEM('',(#84),#85);
#28=STYLED_ITEM('',(#86),#87);
#29=STYLED_ITEM('',(#88),#89);
#30=STYLED_ITEM('',(#90),#91);
#31=STYLED_ITEM('',(#92),#93);
#32=STYLED_ITEM('',(#94),#95);
#33=STYLED_ITEM('',(#96),#97);
#34=STYLED_ITEM('',(#98),#99);
#35=STYLED_ITEM('',(#100),#101);
#36=STYLED_ITEM('',(#102),#103);
#37=STYLED_ITEM('',(#104),#105);
#38=STYLED_ITEM('',(#106),#107);
#39=APPLICATION_CONTEXT(' ');
#40=PRODUCT_CATEGORY('part','NONE');
#41=PRODUCT_RELATED_PRODUCT_CATEGORY('detail',' ',(#108));
#42=PRODUCT_DEFINITION_SHAPE('NONE','NONE',#109);
#43=ADVANCED_BREP_SHAPE_REPRESENTATION('1',(#110,#111),#8);
#44=ADVANCED_BREP_SHAPE_REPRESENTATION('2',(#112,#113),#8);
#45=GEOMETRICALLY_BOUNDED_SURFACE_SHAPE_REPRESENTATION('3',(#114,#115),#8);
#48=UNCERTAINTY_MEASURE_WITH_UNIT(LENGTH_MEASURE(1.0E-06),#50,'','');
#50= (CONVERSION_BASED_UNIT('MILLIMETRE',#118)LENGTH_UNIT()NAMED_UNIT(#121));
#51= (NAMED_UNIT(#123)PLANE_ANGLE_UNIT()SI_UNIT($,.RADIAN.));
#52= (NAMED_UNIT(#123)SOLID_ANGLE_UNIT()SI_UNIT($,.STERADIAN.));
#54=PRESENTATION_STYLE_ASSIGNMENT((#129));
#55=COMPOSITE_CURVE('',(#130),.U.);
#56=PRESENTATION_STYLE_ASSIGNMENT((#131));
#57=COMPOSITE_CURVE('',(#132),.U.);
#58=PRESENTATION_STYLE_ASSIGNMENT((#133));
#59=COMPOSITE_CURVE('',(#134),.U.);
#60=PRESENTATION_STYLE_ASSIGNMENT((#135));
#61=COMPOSITE_CURVE('',(#136),.U.);
#62=PRESENTATION_STYLE_ASSIGNMENT((#137));
#63=COMPOSITE_CURVE('',(#138),.U.);
#64=PRESENTATION_STYLE_ASSIGNMENT((#139));
#65=COMPOSITE_CURVE('',(#140),.U.);
#66=PRESENTATION_STYLE_ASSIGNMENT((#141));
#67=COMPOSITE_CURVE('',(#142),.U.);
#68=PRESENTATION_STYLE_ASSIGNMENT((#143));
#69=COMPOSITE_CURVE('',(#144),.U.);
#70=PRESENTATION_STYLE_ASSIGNMENT((#145));
#71=COMPOSITE_CURVE('',(#146),.U.);
#72=PRESENTATION_STYLE_ASSIGNMENT((#147));
#73=COMPOSITE_CURVE('',(#148),.U.);
#74=PRESENTATION_STYLE_ASSIGNMENT((#149));
#75=COMPOSITE_CURVE('',(#150),.U.);
#76=PRESENTATION_STYLE_ASSIGNMENT((#151));
#77=COMPOSITE_CURVE('',(#152),.U.);
#78=PRESENTATION_STYLE_ASSIGNMENT((#153));
#79=ADVANCED_FACE('',(#154),#155,.T.);
#80=PRESENTATION_STYLE_ASSIGNMENT((#156));
#81=ADVANCED_FACE('',(#157),#158,.T.);
#82=PRESENTATION_STYLE_ASSIGNMENT((#159));
#83=ADVANCED_FACE('',(#160),#161,.T.);
#84=PRESENTATION_STYLE_ASSIGNMENT((#162));
#85=ADVANCED_FACE('',(#163),#164,.T.);
#86=PRESENTATION_STYLE_ASSIGNMENT((#165));
#87=ADVANCED_FACE('',(#166),#167,.T.);
#88=PRESENTATION_STYLE_ASSIGNMENT((#168));
#89=ADVANCED_FACE('',(#169),#170,.T.);
#90=PRESENTATION_STYLE_ASSIGNMENT((#171));
#91=ADVANCED_FACE('',(#172),#173,.T.);
#92=PRESENTATION_STYLE_ASSIGNMENT((#174));
#93=ADVANCED_FACE('',(#175),#176,.T.);
#94=PRESENTATION_STYLE_ASSIGNMENT((#177));
#95=ADVANCED_FACE('',(#178),#179,.T.);
#96=PRESENTATION_STYLE_ASSIGNMENT((#180));
#97=ADVANCED_FACE('',(#181),#182,.T.);
#98=PRESENTATION_STYLE_ASSIGNMENT((#183));
#99=ADVANCED_FACE('',(#184),#185,.T.);
#100=PRESENTATION_STYLE_ASSIGNMENT((#186));
#101=ADVANCED_FACE('',(#187),#188,.T.);
#102=PRESENTATION_STYLE_ASSIGNMENT((#189));
#103=ADVANCED_FACE('',(#190),#191,.T.);
#104=PRESENTATION_STYLE_ASSIGNMENT((#192));
#105=ADVANCED_FACE('',(#193),#194,.T.);
#106=PRESENTATION_STYLE_ASSIGNMENT((#195));
#107=ADVANCED_FACE('',(#196),#197,.T.);
#108=PRODUCT('1','','PART--DESC',(#198));
#109=PRODUCT_DEFINITION('','NONE',#199,#2);
#110=MANIFOLD_SOLID_BREP('1',#200);
#111=AXIS2_PLACEMENT_3D('',#201,#202,#203);
#112=MANIFOLD_SOLID_BREP('2',#204);
#113=AXIS2_PLACEMENT_3D('',#205,#206,#207);
#114=GEOMETRIC_SET('3',(#55,#57,#59,#61,#63,#65,#67,#69,#71,#73,#75,#77));
#115=AXIS2_PLACEMENT_3D('',#208,#209,#210);
#118=LENGTH_MEASURE_WITH_UNIT(LENGTH_MEASURE(1.0),#211);
#121=DIMENSIONAL_EXPONENTS(1.0,0.0,0.0,0.0,0.0,0.0,0.0);
#123=DIMENSIONAL_EXPONENTS(0.0,0.0,0.0,0.0,0.0,0.0,0.0);
#129=CURVE_STYLE('',#212,POSITIVE_LENGTH_MEASURE(1.0E-06),#213);
#130=COMPOSITE_CURVE_SEGMENT(.CONTINUOUS.,.T.,#214);
#131=CURVE_STYLE('',#215,POSITIVE_LENGTH_MEASURE(1.0E-06),#216);
#132=COMPOSITE_CURVE_SEGMENT(.CONTINUOUS.,.T.,#217);
#133=CURVE_STYLE('',#218,POSITIVE_LENGTH_MEASURE(1.0E-06),#219);
#134=COMPOSITE_CURVE_SEGMENT(.CONTINUOUS.,.T.,#220);
#135=CURVE_STYLE('',#221,POSITIVE_LENGTH_MEASURE(1.0E-06),#222);
#136=COMPOSITE_CURVE_SEGMENT(.CONTINUOUS.,.T.,#223);
#137=CURVE_STYLE('',#224,POSITIVE_LENGTH_MEASURE(1.0E-06),#225);
#138=COMPOSITE_CURVE_SEGMENT(.CONTINUOUS.,.T.,#226);
#139=CURVE_STYLE('',#227,POSITIVE_LENGTH_MEASURE(1.0E-06),#228);
#140=COMPOSITE_CURVE_SEGMENT(.CONTINUOUS.,.T.,#229);
#141=CURVE_STYLE('',#230,POSITIVE_LENGTH_MEASURE(1.0E-06),#231);
#142=COMPOSITE_CURVE_SEGMENT(.CONTINUOUS.,.T.,#232);
#143=CURVE_STYLE('',#233,POSITIVE_LENGTH_MEASURE(1.0E-06),#234);
#144=COMPOSITE_CURVE_SEGMENT(.CONTINUOUS.,.T.,#235);
#145=CURVE_STYLE('',#236,POSITIVE_LENGTH_MEASURE(1.0E-06),#237);
#146=COMPOSITE_CURVE_SEGMENT(.CONTINUOUS.,.T.,#238);
#147=CURVE_STYLE('',#239,POSITIVE_LENGTH_MEASURE(1.0E-06),#240);
#148=COMPOSITE_CURVE_SEGMENT(.CONTINUOUS.,.T.,#241);
#149=CURVE_STYLE('',#242,POSITIVE_LENGTH_MEASURE(1.0E-06),#243);
#150=COMPOSITE_CURVE_SEGMENT(.CONTINUOUS.,.T.,#244);
#151=CURVE_STYLE('',#245,POSITIVE_LENGTH_MEASURE(1.0E-06),#246);
#152=COMPOSITE_CURVE_SEGMENT(.CONTINUOUS.,.T.,#247);
#153=SURFACE_STYLE_USAGE(.BOTH.,#248);
#154=FACE_OUTER_BOUND('',#249,.T.);
#155=CONICAL_SURFACE('',#250,1.25,1.3526301702956);
#156=SURFACE_STYLE_USAGE(.BOTH.,#251);
#157=FACE_OUTER_BOUND('',#252,.T.);
#158=CYLINDRICAL_SURFACE('',#253,2.5);
#159=SURFACE_STYLE_USAGE(.BOTH.,#254);
#160=FACE_OUTER_BOUND('',#255,.T.);
#161=CYLINDRICAL_SURFACE('',#256,2.5);
#162=SURFACE_STYLE_USAGE(.BOTH.,#257);
#163=FACE_OUTER_BOUND('',#258,.T.);
#164=CONICAL_SURFACE('',#259,1.25,1.3526301702956);
#165=SURFACE_STYLE_USAGE(.BOTH.,#260);
#166=FACE_OUTER_BOUND('',#261,.T.);
#167=PLANE('',#262);
#168=SURFACE_STYLE_USAGE(.BOTH.,#263);
#169=FACE_OUTER_BOUND('',#264,.T.);
#170=CYLINDRICAL_SURFACE('',#265,2.5);
#171=SURFACE_STYLE_USAGE(.BOTH.,#266);
#172=FACE_OUTER_BOUND('',#267,.T.);
#173=CONICAL_SURFACE('',#268,2.75,0.785398163397449);
#174=SURFACE_STYLE_USAGE(.BOTH.,#269);
#175=FACE_OUTER_BOUND('',#270,.T.);
#176=CYLINDRICAL_SURFACE('',#271,3.0);
#177=SURFACE_STYLE_USAGE(.BOTH.,#272);
#178=FACE_OUTER_BOUND('',#273,.T.);
#179=CONICAL_SURFACE('',#274,2.85,0.785398163397447);
#180=SURFACE_STYLE_USAGE(.BOTH.,#275);
#181=FACE_OUTER_BOUND('',#276,.T.);
#182=PLANE('',#277);
#183=SURFACE_STYLE_USAGE(.BOTH.,#278);
#184=FACE_OUTER_BOUND('',#279,.T.);
#185=CONICAL_SURFACE('',#280,2.85,0.785398163397447);
#186=SURFACE_STYLE_USAGE(.BOTH.,#281);
#187=FACE_OUTER_BOUND('',#282,.T.);
#188=CYLINDRICAL_SURFACE('',#283,3.0);
#189=SURFACE_STYLE_USAGE(.BOTH.,#284);
#190=FACE_OUTER_BOUND('',#285,.T.);
#191=CONICAL_SURFACE('',#286,2.75,0.785398163397449);
#192=SURFACE_STYLE_USAGE(.BOTH.,#287);
#193=FACE_OUTER_BOUND('',#288,.T.);
#194=CYLINDRICAL_SURFACE('',#289,2.5);
#195=SURFACE_STYLE_USAGE(.BOTH.,#290);
#196=FACE_OUTER_BOUND('',#291,.T.);
#197=PLANE('',#292);
#198=PRODUCT_CONTEXT('',#39,'mechanical');
#199=PRODUCT_DEFINITION_FORMATION_WITH_SPECIFIED_SOURCE(' ','NONE',#108,.NOT_KNOWN.);
#200=CLOSED_SHELL('',(#79,#81,#83,#85,#87));
#201=CARTESIAN_POINT('',(0.0,0.0,0.0));
#202=DIRECTION('',(0.0,0.0,1.0));
#203=DIRECTION('',(1.0,0.0,0.0));
#204=CLOSED_SHELL('',(#89,#91,#93,#95,#97,#99,#101,#103,#105,#107));
#205=CARTESIAN_POINT('',(0.0,0.0,0.0));
#206=DIRECTION('',(0.0,0.0,1.0));
#207=DIRECTION('',(1.0,0.0,0.0));
#208=CARTESIAN_POINT('',(0.0,0.0,0.0));
#209=DIRECTION('',(0.0,0.0,1.0));
#210=DIRECTION('',(1.0,0.0,0.0));
#211= (NAMED_UNIT(#121)LENGTH_UNIT()SI_UNIT(.MILLI.,.METRE.));
#212=DRAUGHTING_PRE_DEFINED_CURVE_FONT('continuous');
#213=COLOUR_RGB('',0.0,0.0,1.0);
#214=TRIMMED_CURVE('',#294,(PARAMETER_VALUE(0.0)),(PARAMETER_VALUE(2.56069878578627)),.T.,.UNSPECIFIED.);
#215=DRAUGHTING_PRE_DEFINED_CURVE_FONT('continuous');
#216=COLOUR_RGB('',0.498039215803146,0.498039215803146,0.498039215803146);
#217=TRIMMED_CURVE('',#295,(PARAMETER_VALUE(0.0)),(PARAMETER_VALUE(18.5)),.T.,.UNSPECIFIED.);
#218=DRAUGHTING_PRE_DEFINED_CURVE_FONT('continuous');
#219=COLOUR_RGB('',0.0,0.0,1.0);
#220=TRIMMED_CURVE('',#296,(PARAMETER_VALUE(0.0)),(PARAMETER_VALUE(2.5)),.T.,.UNSPECIFIED.);
#221=DRAUGHTING_PRE_DEFINED_CURVE_FONT('continuous');
#222=COLOUR_RGB('',0.498039215803146,0.498039215803146,0.498039215803146);
#223=TRIMMED_CURVE('',#297,(PARAMETER_VALUE(0.0)),(PARAMETER_VALUE(2.5)),.T.,.UNSPECIFIED.);
#224=DRAUGHTING_PRE_DEFINED_CURVE_FONT('continuous');
#225=COLOUR_RGB('',0.0,0.0,1.0);
#226=TRIMMED_CURVE('',#298,(PARAMETER_VALUE(0.0)),(PARAMETER_VALUE(6.44576334339265)),.T.,.UNSPECIFIED.);
#227=DRAUGHTING_PRE_DEFINED_CURVE_FONT('continuous');
#228=COLOUR_RGB('',0.0,0.0,1.0);
#229=TRIMMED_CURVE('',#299,(PARAMETER_VALUE(0.0)),(PARAMETER_VALUE(7.0)),.T.,.UNSPECIFIED.);
#230=DRAUGHTING_PRE_DEFINED_CURVE_FONT('continuous');
#231=COLOUR_RGB('',0.498039215803146,0.498039215803146,0.498039215803146);
#232=TRIMMED_CURVE('',#300,(PARAMETER_VALUE(0.0)),(PARAMETER_VALUE(55.0)),.T.,.UNSPECIFIED.);
#233=DRAUGHTING_PRE_DEFINED_CURVE_FONT('continuous');
#234=COLOUR_RGB('',0.498039215803146,0.498039215803146,0.498039215803146);
#235=TRIMMED_CURVE('',#301,(PARAMETER_VALUE(0.0)),(PARAMETER_VALUE(2.7)),.T.,.UNSPECIFIED.);
#236=DRAUGHTING_PRE_DEFINED_CURVE_FONT('continuous');
#237=COLOUR_RGB('',0.498039215803146,0.498039215803146,0.498039215803146);
#238=TRIMMED_CURVE('',#302,(PARAMETER_VALUE(0.0)),(PARAMETER_VALUE(0.424264068711926)),.T.,.UNSPECIFIED.);
#239=DRAUGHTING_PRE_DEFINED_CURVE_FONT('continuous');
#240=COLOUR_RGB('',0.498039215803146,0.498039215803146,0.498039215803146);
#241=TRIMMED_CURVE('',#303,(PARAMETER_VALUE(0.0)),(PARAMETER_VALUE(35.7)),.T.,.UNSPECIFIED.);
#242=DRAUGHTING_PRE_DEFINED_CURVE_FONT('continuous');
#243=COLOUR_RGB('',0.498039215803146,0.498039215803146,0.498039215803146);
#244=TRIMMED_CURVE('',#304,(PARAMETER_VALUE(0.0)),(PARAMETER_VALUE(0.707106781186547)),.T.,.UNSPECIFIED.);
#245=DRAUGHTING_PRE_DEFINED_CURVE_FONT('continuous');
#246=COLOUR_RGB('',0.0,1.0,0.0);
#247=TRIMMED_CURVE('',#305,(PARAMETER_VALUE(0.0)),(PARAMETER_VALUE(3.0)),.T.,.UNSPECIFIED.);
#248=SURFACE_SIDE_STYLE('',(#306));
#249=EDGE_LOOP('',(#307,#308,#309));
#250=AXIS2_PLACEMENT_3D('',#310,#311,#312);
#251=SURFACE_SIDE_STYLE('',(#313));
#252=EDGE_LOOP('',(#314,#315,#316,#317));
#253=AXIS2_PLACEMENT_3D('',#318,#319,#320);
#254=SURFACE_SIDE_STYLE('',(#321));
#255=EDGE_LOOP('',(#322,#323,#324,#325));
#256=AXIS2_PLACEMENT_3D('',#326,#327,#328);
#257=SURFACE_SIDE_STYLE('',(#329));
#258=EDGE_LOOP('',(#330,#331,#332));
#259=AXIS2_PLACEMENT_3D('',#333,#334,#335);
#260=SURFACE_SIDE_STYLE('',(#336));
#261=EDGE_LOOP('',(#337,#338));
#262=AXIS2_PLACEMENT_3D('',#339,#340,#341);
#263=SURFACE_SIDE_STYLE('',(#342));
#264=EDGE_LOOP('',(#343,#344,#345,#346));
#265=AXIS2_PLACEMENT_3D('',#347,#348,#349);
#266=SURFACE_SIDE_STYLE('',(#350));
#267=EDGE_LOOP('',(#351,#352,#353,#354));
#268=AXIS2_PLACEMENT_3D('',#355,#356,#357);
#269=SURFACE_SIDE_STYLE('',(#358));
#270=EDGE_LOOP('',(#359,#360,#361,#362));
#271=AXIS2_PLACEMENT_3D('',#363,#364,#365);
#272=SURFACE_SIDE_STYLE('',(#366));
#273=EDGE_LOOP('',(#367,#368,#369,#370));
#274=AXIS2_PLACEMENT_3D('',#371,#372,#373);
#275=SURFACE_SIDE_STYLE('',(#374));
#276=EDGE_LOOP('',(#375,#376));
#277=AXIS2_PLACEMENT_3D('',#377,#378,#379);
#278=SURFACE_SIDE_STYLE('',(#380));
#279=EDGE_LOOP('',(#381,#382,#383,#384));
#280=AXIS2_PLACEMENT_3D('',#385,#386,#387);
#281=SURFACE_SIDE_STYLE('',(#388));
#282=EDGE_LOOP('',(#389,#390,#391,#392));
#283=AXIS2_PLACEMENT_3D('',#393,#394,#395);
#284=SURFACE_SIDE_STYLE('',(#396));
#285=EDGE_LOOP('',(#397,#398,#399,#400));
#286=AXIS2_PLACEMENT_3D('',#401,#402,#403);
#287=SURFACE_SIDE_STYLE('',(#404));
#288=EDGE_LOOP('',(#405,#406,#407,#408));
#289=AXIS2_PLACEMENT_3D('',#409,#410,#411);
#290=SURFACE_SIDE_STYLE('',(#412));
#291=EDGE_LOOP('',(#413,#414));
#292=AXIS2_PLACEMENT_3D('',#415,#416,#417);
#294=LINE('',#418,#419);
#295=LINE('',#420,#421);
#296=LINE('',#422,#423);
#297=LINE('',#424,#425);
#298=LINE('',#426,#427);
#299=LINE('',#428,#429);
#300=LINE('',#430,#431);
#301=LINE('',#432,#433);
#302=LINE('',#434,#435);
#303=LINE('',#436,#437);
#304=LINE('',#438,#439);
#305=LINE('',#440,#441);
#306=SURFACE_STYLE_FILL_AREA(#442);
#307=ORIENTED_EDGE('',*,*,#443,.F.);
#308=ORIENTED_EDGE('',*,*,#444,.F.);
#309=ORIENTED_EDGE('',*,*,#445,.T.);
#310=CARTESIAN_POINT('',(1.57507223520445E-15,0.0,-25.7228816716963));
#311=DIRECTION('',(-6.12323399573677E-17,-0.0,1.0));
#312=DIRECTION('',(0.0,1.0,0.0));
#313=SURFACE_STYLE_FILL_AREA(#446);
#314=ORIENTED_EDGE('',*,*,#447,.F.);
#315=ORIENTED_EDGE('',*,*,#448,.T.);
#316=ORIENTED_EDGE('',*,*,#449,.F.);
#317=ORIENTED_EDGE('',*,*,#445,.F.);
#318=CARTESIAN_POINT('',(1.36075904535366E-15,0.0,-22.2228816716963));
#319=DIRECTION('',(6.12323399573677E-17,0.0,-1.0));
#320=DIRECTION('',(0.0,1.0,0.0));
#321=SURFACE_STYLE_FILL_AREA(#450);
#322=ORIENTED_EDGE('',*,*,#447,.T.);
#323=ORIENTED_EDGE('',*,*,#451,.F.);
#324=ORIENTED_EDGE('',*,*,#449,.T.);
#325=ORIENTED_EDGE('',*,*,#452,.T.);
#326=CARTESIAN_POINT('',(1.36075904535366E-15,0.0,-22.2228816716963));
#327=DIRECTION('',(6.12323399573677E-17,0.0,-1.0));
#328=DIRECTION('',(0.0,1.0,0.0));
#329=SURFACE_STYLE_FILL_AREA(#453);
#330=ORIENTED_EDGE('',*,*,#443,.T.);
#331=ORIENTED_EDGE('',*,*,#451,.T.);
#332=ORIENTED_EDGE('',*,*,#444,.T.);
#333=CARTESIAN_POINT('',(1.57507223520445E-15,0.0,-25.7228816716963));
#334=DIRECTION('',(-6.12323399573677E-17,-0.0,1.0));
#335=DIRECTION('',(0.0,1.0,0.0));
#336=SURFACE_STYLE_FILL_AREA(#454);
#337=ORIENTED_EDGE('',*,*,#448,.F.);
#338=ORIENTED_EDGE('',*,*,#452,.F.);
#339=CARTESIAN_POINT('',(1.16341445918999E-15,1.25,-19.0));
#340=DIRECTION('',(-6.12323399573677E-17,0.0,1.0));
#341=DIRECTION('',(0.0,-1.0,0.0));
#342=SURFACE_STYLE_FILL_AREA(#455);
#343=ORIENTED_EDGE('',*,*,#456,.F.);
#344=ORIENTED_EDGE('',*,*,#457,.T.);
#345=ORIENTED_EDGE('',*,*,#458,.F.);
#346=ORIENTED_EDGE('',*,*,#459,.F.);
#347=CARTESIAN_POINT('',(5.97015314584335E-16,0.0,-9.75));
#348=DIRECTION('',(6.12323399573677E-17,0.0,-1.0));
#349=DIRECTION('',(0.0,1.0,0.0));
#350=SURFACE_STYLE_FILL_AREA(#460);
#351=ORIENTED_EDGE('',*,*,#461,.F.);
#352=ORIENTED_EDGE('',*,*,#462,.T.);
#353=ORIENTED_EDGE('',*,*,#463,.F.);
#354=ORIENTED_EDGE('',*,*,#457,.F.);
#355=CARTESIAN_POINT('',(1.53080849893419E-17,0.0,-0.25));
#356=DIRECTION('',(-6.12323399573677E-17,-0.0,1.0));
#357=DIRECTION('',(0.0,1.0,0.0));
#358=SURFACE_STYLE_FILL_AREA(#464);
#359=ORIENTED_EDGE('',*,*,#465,.F.);
#360=ORIENTED_EDGE('',*,*,#466,.T.);
#361=ORIENTED_EDGE('',*,*,#467,.F.);
#362=ORIENTED_EDGE('',*,*,#462,.F.);
#363=CARTESIAN_POINT('',(-1.09299726823901E-15,0.0,17.85));
#364=DIRECTION('',(6.12323399573676E-17,0.0,-1.0));
#365=DIRECTION('',(0.0,1.0,0.0));
#366=SURFACE_STYLE_FILL_AREA(#468);
#367=ORIENTED_EDGE('',*,*,#469,.F.);
#368=ORIENTED_EDGE('',*,*,#470,.T.);
#369=ORIENTED_EDGE('',*,*,#471,.F.);
#370=ORIENTED_EDGE('',*,*,#466,.F.);
#371=CARTESIAN_POINT('',(-2.19517938747163E-15,0.0,35.85));
#372=DIRECTION('',(6.12323399573676E-17,-0.0,-1.0));
#373=DIRECTION('',(0.0,1.0,0.0));
#374=SURFACE_STYLE_FILL_AREA(#472);
#375=ORIENTED_EDGE('',*,*,#470,.F.);
#376=ORIENTED_EDGE('',*,*,#473,.F.);
#377=CARTESIAN_POINT('',(-2.20436423846524E-15,1.35,36.0));
#378=DIRECTION('',(-6.12323399573677E-17,0.0,1.0));
#379=DIRECTION('',(0.0,-1.0,0.0));
#380=SURFACE_STYLE_FILL_AREA(#474);
#381=ORIENTED_EDGE('',*,*,#469,.T.);
#382=ORIENTED_EDGE('',*,*,#475,.F.);
#383=ORIENTED_EDGE('',*,*,#471,.T.);
#384=ORIENTED_EDGE('',*,*,#473,.T.);
#385=CARTESIAN_POINT('',(-2.19517938747163E-15,0.0,35.85));
#386=DIRECTION('',(6.12323399573676E-17,-0.0,-1.0));
#387=DIRECTION('',(0.0,1.0,0.0));
#388=SURFACE_STYLE_FILL_AREA(#476);
#389=ORIENTED_EDGE('',*,*,#465,.T.);
#390=ORIENTED_EDGE('',*,*,#477,.F.);
#391=ORIENTED_EDGE('',*,*,#467,.T.);
#392=ORIENTED_EDGE('',*,*,#475,.T.);
#393=CARTESIAN_POINT('',(-1.09299726823901E-15,0.0,17.85));
#394=DIRECTION('',(6.12323399573676E-17,0.0,-1.0));
#395=DIRECTION('',(0.0,1.0,0.0));
#396=SURFACE_STYLE_FILL_AREA(#478);
#397=ORIENTED_EDGE('',*,*,#461,.T.);
#398=ORIENTED_EDGE('',*,*,#479,.F.);
#399=ORIENTED_EDGE('',*,*,#463,.T.);
#400=ORIENTED_EDGE('',*,*,#477,.T.);
#401=CARTESIAN_POINT('',(1.53080849893419E-17,0.0,-0.25));
#402=DIRECTION('',(-6.12323399573677E-17,-0.0,1.0));
#403=DIRECTION('',(0.0,1.0,0.0));
#404=SURFACE_STYLE_FILL_AREA(#480);
#405=ORIENTED_EDGE('',*,*,#456,.T.);
#406=ORIENTED_EDGE('',*,*,#481,.F.);
#407=ORIENTED_EDGE('',*,*,#458,.T.);
#408=ORIENTED_EDGE('',*,*,#479,.T.);
#409=CARTESIAN_POINT('',(5.97015314584335E-16,0.0,-9.75));
#410=DIRECTION('',(6.12323399573677E-17,0.0,-1.0));
#411=DIRECTION('',(0.0,1.0,0.0));
#412=SURFACE_STYLE_FILL_AREA(#482);
#413=ORIENTED_EDGE('',*,*,#459,.T.);
#414=ORIENTED_EDGE('',*,*,#481,.T.);
#415=CARTESIAN_POINT('',(1.16341445918999E-15,1.25,-19.0));
#416=DIRECTION('',(6.12323399573677E-17,0.0,-1.0));
#417=DIRECTION('',(0.0,1.0,0.0));
#418=CARTESIAN_POINT('',(1.59204083889156E-15,0.0,-26.0));
#419=VECTOR('',#483,1.0);
#420=CARTESIAN_POINT('',(3.06161699786838E-17,2.5,-0.5));
#421=VECTOR('',#484,1.0);
#422=CARTESIAN_POINT('',(1.16341445918999E-15,2.5,-19.0));
#423=VECTOR('',#485,1.0);
#424=CARTESIAN_POINT('',(1.16341445918999E-15,2.5,-19.0));
#425=VECTOR('',#486,1.0);
#426=CARTESIAN_POINT('',(1.16341445918999E-15,2.5,-19.0));
#427=VECTOR('',#487,1.0);
#428=CARTESIAN_POINT('',(1.16341445918999E-15,0.0,-19.0));
#429=VECTOR('',#488,1.0);
#430=CARTESIAN_POINT('',(1.16341445918999E-15,0.0,-19.0));
#431=VECTOR('',#489,1.0);
#432=CARTESIAN_POINT('',(-2.20436423846524E-15,0.0,36.0));
#433=VECTOR('',#490,1.0);
#434=CARTESIAN_POINT('',(-2.20436423846524E-15,2.7,36.0));
#435=VECTOR('',#491,1.0);
#436=CARTESIAN_POINT('',(-2.18599453647803E-15,3.0,35.7));
#437=VECTOR('',#492,1.0);
#438=CARTESIAN_POINT('',(0.0,3.0,0.0));
#439=VECTOR('',#493,1.0);
#440=CARTESIAN_POINT('',(0.0,3.0,0.0));
#441=VECTOR('',#494,1.0);
#442=FILL_AREA_STYLE('',(#495));
#443=EDGE_CURVE('',#496,#497,#498,.T.);
#444=EDGE_CURVE('',#499,#496,#500,.T.);
#445=EDGE_CURVE('',#499,#497,#501,.T.);
#446=FILL_AREA_STYLE('',(#502));
#447=EDGE_CURVE('',#503,#499,#504,.T.);
#448=EDGE_CURVE('',#503,#505,#506,.T.);
#449=EDGE_CURVE('',#497,#505,#507,.T.);
#450=FILL_AREA_STYLE('',(#508));
#451=EDGE_CURVE('',#497,#499,#509,.T.);
#452=EDGE_CURVE('',#505,#503,#510,.T.);
#453=FILL_AREA_STYLE('',(#511));
#454=FILL_AREA_STYLE('',(#512));
#455=FILL_AREA_STYLE('',(#513));
#456=EDGE_CURVE('',#514,#515,#516,.T.);
#457=EDGE_CURVE('',#514,#517,#518,.T.);
#458=EDGE_CURVE('',#519,#517,#520,.T.);
#459=EDGE_CURVE('',#515,#519,#521,.T.);
#460=FILL_AREA_STYLE('',(#522));
#461=EDGE_CURVE('',#523,#514,#524,.T.);
#462=EDGE_CURVE('',#523,#525,#526,.T.);
#463=EDGE_CURVE('',#517,#525,#527,.T.);
#464=FILL_AREA_STYLE('',(#528));
#465=EDGE_CURVE('',#529,#523,#530,.T.);
#466=EDGE_CURVE('',#529,#531,#532,.T.);
#467=EDGE_CURVE('',#525,#531,#533,.T.);
#468=FILL_AREA_STYLE('',(#534));
#469=EDGE_CURVE('',#535,#529,#536,.T.);
#470=EDGE_CURVE('',#535,#537,#538,.T.);
#471=EDGE_CURVE('',#531,#537,#539,.T.);
#472=FILL_AREA_STYLE('',(#540));
#473=EDGE_CURVE('',#537,#535,#541,.T.);
#474=FILL_AREA_STYLE('',(#542));
#475=EDGE_CURVE('',#531,#529,#543,.T.);
#476=FILL_AREA_STYLE('',(#544));
#477=EDGE_CURVE('',#525,#523,#545,.T.);
#478=FILL_AREA_STYLE('',(#546));
#479=EDGE_CURVE('',#517,#514,#547,.T.);
#480=FILL_AREA_STYLE('',(#548));
#481=EDGE_CURVE('',#519,#515,#549,.T.);
#482=FILL_AREA_STYLE('',(#550));
#483=DIRECTION('',(-1.32531040208994E-17,0.976296007119933,0.216439613938103));
#484=DIRECTION('',(6.12323399573677E-17,0.0,-1.0));
#485=DIRECTION('',(0.0,-1.0,0.0));
#486=DIRECTION('',(0.0,-1.0,0.0));
#487=DIRECTION('',(6.12323399573677E-17,0.0,-1.0));
#488=DIRECTION('',(6.12323399573677E-17,0.0,-1.0));
#489=DIRECTION('',(-6.12323399573677E-17,0.0,1.0));
#490=DIRECTION('',(0.0,1.0,0.0));
#491=DIRECTION('',(4.32978028117743E-17,0.707106781186551,-0.707106781186544));
#492=DIRECTION('',(6.12323399573677E-17,0.0,-1.0));
#493=DIRECTION('',(4.32978028117747E-17,-0.707106781186547,-0.707106781186547));
#494=DIRECTION('',(0.0,-1.0,0.0));
#495=FILL_AREA_STYLE_COLOUR('',#551);
#496=VERTEX_POINT('',#552);
#497=VERTEX_POINT('',#553);
#498=LINE('',#554,#555);
#499=VERTEX_POINT('',#556);
#500=LINE('',#557,#558);
#501=CIRCLE('',#559,2.5);
#502=FILL_AREA_STYLE_COLOUR('',#560);
#503=VERTEX_POINT('',#561);
#504=LINE('',#562,#563);
#505=VERTEX_POINT('',#564);
#506=CIRCLE('',#565,2.5);
#507=LINE('',#566,#567);
#508=FILL_AREA_STYLE_COLOUR('',#568);
#509=CIRCLE('',#569,2.5);
#510=CIRCLE('',#570,2.5);
#511=FILL_AREA_STYLE_COLOUR('',#571);
#512=FILL_AREA_STYLE_COLOUR('',#572);
#513=FILL_AREA_STYLE_COLOUR('',#573);
#514=VERTEX_POINT('',#574);
#515=VERTEX_POINT('',#575);
#516=LINE('',#576,#577);
#517=VERTEX_POINT('',#578);
#518=CIRCLE('',#579,2.5);
#519=VERTEX_POINT('',#580);
#520=LINE('',#581,#582);
#521=CIRCLE('',#583,2.5);
#522=FILL_AREA_STYLE_COLOUR('',#584);
#523=VERTEX_POINT('',#585);
#524=LINE('',#586,#587);
#525=VERTEX_POINT('',#588);
#526=CIRCLE('',#589,3.0);
#527=LINE('',#590,#591);
#528=FILL_AREA_STYLE_COLOUR('',#592);
#529=VERTEX_POINT('',#593);
#530=LINE('',#594,#595);
#531=VERTEX_POINT('',#596);
#532=CIRCLE('',#597,3.0);
#533=LINE('',#598,#599);
#534=FILL_AREA_STYLE_COLOUR('',#600);
#535=VERTEX_POINT('',#601);
#536=LINE('',#602,#603);
#537=VERTEX_POINT('',#604);
#538=CIRCLE('',#605,2.7);
#539=LINE('',#606,#607);
#540=FILL_AREA_STYLE_COLOUR('',#608);
#541=CIRCLE('',#609,2.7);
#542=FILL_AREA_STYLE_COLOUR('',#610);
#543=CIRCLE('',#611,3.0);
#544=FILL_AREA_STYLE_COLOUR('',#612);
#545=CIRCLE('',#613,3.0);
#546=FILL_AREA_STYLE_COLOUR('',#614);
#547=CIRCLE('',#615,2.5);
#548=FILL_AREA_STYLE_COLOUR('',#616);
#549=CIRCLE('',#617,2.5);
#550=FILL_AREA_STYLE_COLOUR('',#618);
#551=COLOUR_RGB('',0.800000011920929,0.800000011920929,0.800000011920929);
#552=CARTESIAN_POINT('',(1.59204083889156E-15,0.0,-26.0));
#553=CARTESIAN_POINT('',(1.86426533130418E-15,-2.5,-25.4457633433926));
#554=CARTESIAN_POINT('',(1.72815308509787E-15,-1.25,-25.7228816716963));
#555=VECTOR('',#619,1.0);
#556=CARTESIAN_POINT('',(1.55810363151734E-15,2.5,-25.4457633433926));
#557=CARTESIAN_POINT('',(1.42199138531103E-15,1.25,-25.7228816716963));
#558=VECTOR('',#620,1.0);
#559=AXIS2_PLACEMENT_3D('',#621,#622,#623);
#560=COLOUR_RGB('',0.800000011920929,0.800000011920929,0.800000011920929);
#561=CARTESIAN_POINT('',(1.16341445918999E-15,2.5,-19.0));
#562=CARTESIAN_POINT('',(1.05459734556683E-15,2.5,-22.2228816716963));
#563=VECTOR('',#624,1.0);
#564=CARTESIAN_POINT('',(1.46957615897682E-15,-2.5,-19.0));
#565=AXIS2_PLACEMENT_3D('',#625,#626,#627);
#566=CARTESIAN_POINT('',(1.6669207451405E-15,-2.5,-22.2228816716963));
#567=VECTOR('',#628,1.0);
#568=COLOUR_RGB('',0.800000011920929,0.800000011920929,0.800000011920929);
#569=AXIS2_PLACEMENT_3D('',#629,#630,#631);
#570=AXIS2_PLACEMENT_3D('',#632,#633,#634);
#571=COLOUR_RGB('',0.800000011920929,0.800000011920929,0.800000011920929);
#572=COLOUR_RGB('',0.800000011920929,0.800000011920929,0.800000011920929);
#573=COLOUR_RGB('',0.498039215803146,0.498039215803146,0.498039215803146);
#574=CARTESIAN_POINT('',(3.06161699786838E-17,2.5,-0.5));
#575=CARTESIAN_POINT('',(1.16341445918999E-15,2.5,-19.0));
#576=CARTESIAN_POINT('',(2.90853614797496E-16,2.5,-9.75));
#577=VECTOR('',#635,1.0);
#578=CARTESIAN_POINT('',(3.36777869765522E-16,-2.5,-0.5));
#579=AXIS2_PLACEMENT_3D('',#636,#637,#638);
#580=CARTESIAN_POINT('',(1.46957615897682E-15,-2.5,-19.0));
#581=CARTESIAN_POINT('',(9.03177014371173E-16,-2.5,-9.75));
#582=VECTOR('',#639,1.0);
#583=AXIS2_PLACEMENT_3D('',#640,#641,#642);
#584=COLOUR_RGB('',0.498039215803146,0.498039215803146,0.498039215803146);
#585=CARTESIAN_POINT('',(0.0,3.0,0.0));
#586=CARTESIAN_POINT('',(-3.2146978477618E-16,2.75,-0.25));
#587=VECTOR('',#643,1.0);
#588=CARTESIAN_POINT('',(3.67394039744206E-16,-3.0,2.24963967399279E-32));
#589=AXIS2_PLACEMENT_3D('',#644,#645,#646);
#590=CARTESIAN_POINT('',(3.52085954754864E-16,-2.75,-0.25));
#591=VECTOR('',#647,1.0);
#592=COLOUR_RGB('',0.498039215803146,0.498039215803146,0.498039215803146);
#593=CARTESIAN_POINT('',(-2.18599453647803E-15,3.0,35.7));
#594=CARTESIAN_POINT('',(-1.46039130798322E-15,3.0,17.85));
#595=VECTOR('',#648,1.0);
#596=CARTESIAN_POINT('',(-1.81860049673382E-15,-3.0,35.7));
#597=AXIS2_PLACEMENT_3D('',#649,#650,#651);
#598=CARTESIAN_POINT('',(-7.25603228494807E-16,-3.0,17.85));
#599=VECTOR('',#652,1.0);
#600=COLOUR_RGB('',0.498039215803146,0.498039215803146,0.498039215803146);
#601=CARTESIAN_POINT('',(-2.20436423846524E-15,2.7,36.0));
#602=CARTESIAN_POINT('',(-2.54420372522863E-15,2.85,35.85));
#603=VECTOR('',#653,1.0);
#604=CARTESIAN_POINT('',(-1.87370960269545E-15,-2.7,36.0));
#605=AXIS2_PLACEMENT_3D('',#654,#655,#656);
#606=CARTESIAN_POINT('',(-1.84615504971464E-15,-2.85,35.85));
#607=VECTOR('',#657,1.0);
#608=COLOUR_RGB('',0.498039215803146,0.498039215803146,0.498039215803146);
#609=AXIS2_PLACEMENT_3D('',#658,#659,#660);
#610=COLOUR_RGB('',0.498039215803146,0.498039215803146,0.498039215803146);
#611=AXIS2_PLACEMENT_3D('',#661,#662,#663);
#612=COLOUR_RGB('',0.498039215803146,0.498039215803146,0.498039215803146);
#613=AXIS2_PLACEMENT_3D('',#664,#665,#666);
#614=COLOUR_RGB('',0.498039215803146,0.498039215803146,0.498039215803146);
#615=AXIS2_PLACEMENT_3D('',#667,#668,#669);
#616=COLOUR_RGB('',0.498039215803146,0.498039215803146,0.498039215803146);
#617=AXIS2_PLACEMENT_3D('',#670,#671,#672);
#618=COLOUR_RGB('',0.498039215803146,0.498039215803146,0.498039215803146);
#619=DIRECTION('',(1.06308673993077E-16,-0.976296007119933,0.216439613938103));
#620=DIRECTION('',(1.32814882034876E-16,-0.976296007119933,-0.216439613938103));
#621=CARTESIAN_POINT('',(1.55810363151734E-15,0.0,-25.4457633433926));
#622=DIRECTION('',(6.12323399573677E-17,0.0,-1.0));
#623=DIRECTION('',(0.0,1.0,0.0));
#624=DIRECTION('',(6.12323399573677E-17,0.0,-1.0));
#625=CARTESIAN_POINT('',(1.16341445918999E-15,0.0,-19.0));
#626=DIRECTION('',(6.12323399573677E-17,0.0,-1.0));
#627=DIRECTION('',(0.0,1.0,0.0));
#628=DIRECTION('',(-6.12323399573677E-17,-0.0,1.0));
#629=CARTESIAN_POINT('',(1.55810363151734E-15,0.0,-25.4457633433926));
#630=DIRECTION('',(6.12323399573677E-17,0.0,-1.0));
#631=DIRECTION('',(0.0,1.0,0.0));
#632=CARTESIAN_POINT('',(1.16341445918999E-15,0.0,-19.0));
#633=DIRECTION('',(6.12323399573677E-17,0.0,-1.0));
#634=DIRECTION('',(0.0,1.0,0.0));
#635=DIRECTION('',(6.12323399573677E-17,0.0,-1.0));
#636=CARTESIAN_POINT('',(3.06161699786838E-17,0.0,-0.5));
#637=DIRECTION('',(6.12323399573677E-17,0.0,-1.0));
#638=DIRECTION('',(0.0,1.0,0.0));
#639=DIRECTION('',(-6.12323399573677E-17,-0.0,1.0));
#640=CARTESIAN_POINT('',(1.16341445918999E-15,0.0,-19.0));
#641=DIRECTION('',(6.12323399573677E-17,0.0,-1.0));
#642=DIRECTION('',(0.0,1.0,0.0));
#643=DIRECTION('',(1.29893408435324E-16,-0.707106781186547,-0.707106781186548));
#644=CARTESIAN_POINT('',(0.0,0.0,0.0));
#645=DIRECTION('',(6.12323399573676E-17,0.0,-1.0));
#646=DIRECTION('',(0.0,1.0,0.0));
#647=DIRECTION('',(4.32978028117746E-17,-0.707106781186547,0.707106781186548));
#648=DIRECTION('',(6.12323399573676E-17,0.0,-1.0));
#649=CARTESIAN_POINT('',(-2.18599453647803E-15,0.0,35.7));
#650=DIRECTION('',(6.12323399573676E-17,0.0,-1.0));
#651=DIRECTION('',(0.0,1.0,0.0));
#652=DIRECTION('',(-6.12323399573676E-17,-0.0,1.0));
#653=DIRECTION('',(-4.32978028117744E-17,0.707106781186546,-0.707106781186549));
#654=CARTESIAN_POINT('',(-2.20436423846524E-15,0.0,36.0));
#655=DIRECTION('',(6.12323399573676E-17,0.0,-1.0));
#656=DIRECTION('',(0.0,1.0,0.0));
#657=DIRECTION('',(-1.29893408435324E-16,0.707106781186546,0.707106781186549));
#658=CARTESIAN_POINT('',(-2.20436423846524E-15,0.0,36.0));
#659=DIRECTION('',(6.12323399573676E-17,0.0,-1.0));
#660=DIRECTION('',(0.0,1.0,0.0));
#661=CARTESIAN_POINT('',(-2.18599453647803E-15,0.0,35.7));
#662=DIRECTION('',(6.12323399573676E-17,0.0,-1.0));
#663=DIRECTION('',(0.0,1.0,0.0));
#664=CARTESIAN_POINT('',(0.0,0.0,0.0));
#665=DIRECTION('',(6.12323399573676E-17,0.0,-1.0));
#666=DIRECTION('',(0.0,1.0,0.0));
#667=CARTESIAN_POINT('',(3.06161699786838E-17,0.0,-0.5));
#668=DIRECTION('',(6.12323399573677E-17,0.0,-1.0));
#669=DIRECTION('',(0.0,1.0,0.0));
#670=CARTESIAN_POINT('',(1.16341445918999E-15,0.0,-19.0));
#671=DIRECTION('',(6.12323399573677E-17,0.0,-1.0));
#672=DIRECTION('',(0.0,1.0,0.0));
#673=DIRECTION('',(0.0,0.0,1.0));
#674=DIRECTION('',(1.0,0.0,0.0));
#675=CARTESIAN_POINT('',(0.0,0.0,36.000000));
#676=AXIS2_PLACEMENT_3D('PCS', #675,#673,#674);
#677=CARTESIAN_POINT('',(0.0,0.0,0.000000));
#678=AXIS2_PLACEMENT_3D('MCS', #677,#673,#674);
#679=CARTESIAN_POINT('',(0.0,0.0,-26.000000));
#680=AXIS2_PLACEMENT_3D('CIP', #679,#673,#674);
ENDSEC;
END-ISO-10303-21;
