ISO-10303-21;
HEADER;
FILE_DESCRIPTION((''),'2;1');
FILE_NAME('607095101-000-00-E43','2018-10-17T',('steckerb'),(''),
'PRO/ENGINEER BY PARAMETRIC TECHNOLOGY CORPORATION, 2011220',
'PRO/ENGINEER BY PARAMETRIC TECHNOLOGY CORPORATION, 2011220','');
FILE_SCHEMA(('AUTOMOTIVE_DESIGN_CC2 { 1 2 10303 214 -1 1 5 2 }'));
ENDSEC;
DATA;
#1=DRAUGHTING_PRE_DEFINED_COLOUR('blue');
#2=DRAUGHTING_PRE_DEFINED_COLOUR('green');
#3=COLOUR_RGB('',1.E-2,7.9E-1,3.8E-1);
#4=COLOUR_RGB('',2.E-2,4.E-2,2.6E-1);
#5=COLOUR_RGB('',2.E-2,1.6E-1,7.4E-1);
#6=COLOUR_RGB('',2.E-2,5.E-1,6.5E-1);
#7=COLOUR_RGB('',2.E-2,6.2E-1,9.1E-1);
#8=COLOUR_RGB('',3.E-2,4.4E-1,1.6E-1);
#9=COLOUR_RGB('',5.E-2,9.5E-1,7.3E-1);
#10=COLOUR_RGB('',1.7E-1,5.8E-1,7.6E-1);
#11=COLOUR_RGB('',2.E-1,2.E-1,2.E-1);
#12=COLOUR_RGB('',3.3E-1,7.5E-1,9.2E-1);
#13=COLOUR_RGB('',4.4E-1,4.4E-1,4.4E-1);
#14=COLOUR_RGB('',5.E-1,5.E-1,5.E-1);
#15=COLOUR_RGB('',5.1E-1,9.E-1,5.2E-1);
#16=COLOUR_RGB('',5.8E-1,9.E-2,2.1E-1);
#17=COLOUR_RGB('',5.8E-1,1.4E-1,8.3E-1);
#18=COLOUR_RGB('',6.4E-1,4.E-1,1.E-2);
#19=COLOUR_RGB('',6.5E-1,3.5E-1,4.E-2);
#20=COLOUR_RGB('',7.E-1,7.E-1,7.E-1);
#21=COLOUR_RGB('',7.4E-1,7.54E-1,7.5E-1);
#22=COLOUR_RGB('',7.6E-1,1.7E-1,1.E-2);
#23=COLOUR_RGB('',7.8E-1,8.8E-1,9.2E-1);
#24=COLOUR_RGB('',7.9E-1,6.1E-1,4.E-1);
#25=COLOUR_RGB('',8.E-1,8.E-1,8.E-1);
#26=COLOUR_RGB('',8.2E-1,7.E-1,8.7E-1);
#27=COLOUR_RGB('',8.4E-1,5.8E-1,8.E-2);
#28=COLOUR_RGB('',8.6E-1,4.6E-1,5.4E-1);
#29=COLOUR_RGB('',9.3E-1,7.9E-1,4.8E-1);
#30=COLOUR_RGB('',9.7E-1,4.3E-1,4.4E-1);
#31=COLOUR_RGB('',9.8E-1,5.04E-1,8.E-1);
#32=COLOUR_RGB('',9.8E-1,7.5E-1,8.E-1);
#33=DRAUGHTING_PRE_DEFINED_COLOUR('red');
#34=DRAUGHTING_PRE_DEFINED_COLOUR('magenta');
#35=COLOUR_RGB('',1.E0,6.705882352941E-1,0.E0);
#36=DRAUGHTING_PRE_DEFINED_COLOUR('yellow');
#37=DRAUGHTING_PRE_DEFINED_COLOUR('white');
#39=CARTESIAN_POINT('',(0.E0,0.E0,-2.213168256060E1));
#40=DIRECTION('',(0.E0,0.E0,-1.E0));
#41=DIRECTION('',(-1.E0,0.E0,0.E0));
#42=AXIS2_PLACEMENT_3D('',#39,#40,#41);
#44=DRAUGHTING_PRE_DEFINED_CURVE_FONT('continuous');
#45=CURVE_STYLE('',#44,POSITIVE_LENGTH_MEASURE(2.E-2),#14);
#46=PRESENTATION_STYLE_ASSIGNMENT((#45));
#47=STYLED_ITEM('',(#46),#43);
#48=CARTESIAN_POINT('',(0.E0,0.E0,-2.755469721979E1));
#49=DIRECTION('',(0.E0,0.E0,-1.E0));
#50=DIRECTION('',(-1.E0,0.E0,0.E0));
#51=AXIS2_PLACEMENT_3D('',#48,#49,#50);
#53=CURVE_STYLE('',#44,POSITIVE_LENGTH_MEASURE(2.E-2),#14);
#54=PRESENTATION_STYLE_ASSIGNMENT((#53));
#55=STYLED_ITEM('',(#54),#52);
#56=DIRECTION('',(7.071067811866E-1,0.E0,7.071067811865E-1));
#57=VECTOR('',#56,7.669300879972E0);
#58=CARTESIAN_POINT('',(5.769853408115E-1,0.E0,-2.755469721979E1));
#59=LINE('',#58,#57);
#60=CURVE_STYLE('',#44,POSITIVE_LENGTH_MEASURE(2.E-2),#14);
#61=PRESENTATION_STYLE_ASSIGNMENT((#60));
#62=STYLED_ITEM('',(#61),#59);
#63=CARTESIAN_POINT('',(0.E0,0.E0,-2.755469721979E1));
#64=DIRECTION('',(0.E0,0.E0,1.E0));
#65=DIRECTION('',(-1.E0,0.E0,0.E0));
#66=AXIS2_PLACEMENT_3D('',#63,#64,#65);
#68=CURVE_STYLE('',#44,POSITIVE_LENGTH_MEASURE(2.E-2),#14);
#69=PRESENTATION_STYLE_ASSIGNMENT((#68));
#70=STYLED_ITEM('',(#69),#67);
#71=DIRECTION('',(-7.071067811866E-1,0.E0,7.071067811865E-1));
#72=VECTOR('',#71,7.669300879972E0);
#73=CARTESIAN_POINT('',(-5.769853408115E-1,0.E0,-2.755469721979E1));
#74=LINE('',#73,#72);
#75=CURVE_STYLE('',#44,POSITIVE_LENGTH_MEASURE(2.E-2),#14);
#76=PRESENTATION_STYLE_ASSIGNMENT((#75));
#77=STYLED_ITEM('',(#76),#74);
#78=CARTESIAN_POINT('',(0.E0,0.E0,-2.213168256060E1));
#79=DIRECTION('',(0.E0,0.E0,-1.E0));
#80=DIRECTION('',(1.E0,0.E0,0.E0));
#81=AXIS2_PLACEMENT_3D('',#78,#79,#80);
#83=CURVE_STYLE('',#44,POSITIVE_LENGTH_MEASURE(2.E-2),#14);
#84=PRESENTATION_STYLE_ASSIGNMENT((#83));
#85=STYLED_ITEM('',(#84),#82);
#86=DIRECTION('',(0.E0,0.E0,1.E0));
#87=VECTOR('',#86,6.593168256060E1);
#88=CARTESIAN_POINT('',(-6.E0,0.E0,-2.213168256060E1));
#89=LINE('',#88,#87);
#90=CURVE_STYLE('',#44,POSITIVE_LENGTH_MEASURE(2.E-2),#14);
#91=PRESENTATION_STYLE_ASSIGNMENT((#90));
#92=STYLED_ITEM('',(#91),#89);
#93=DIRECTION('',(0.E0,0.E0,1.E0));
#94=VECTOR('',#93,6.593168256060E1);
#95=CARTESIAN_POINT('',(6.E0,0.E0,-2.213168256060E1));
#96=LINE('',#95,#94);
#97=CURVE_STYLE('',#44,POSITIVE_LENGTH_MEASURE(2.E-2),#14);
#98=PRESENTATION_STYLE_ASSIGNMENT((#97));
#99=STYLED_ITEM('',(#98),#96);
#100=DIRECTION('',(7.071067811863E-1,0.E0,7.071067811868E-1));
#101=VECTOR('',#100,1.697056274848E0);
#102=CARTESIAN_POINT('',(-6.E0,0.E0,4.38E1));
#103=LINE('',#102,#101);
#104=CURVE_STYLE('',#44,POSITIVE_LENGTH_MEASURE(2.E-2),#14);
#105=PRESENTATION_STYLE_ASSIGNMENT((#104));
#106=STYLED_ITEM('',(#105),#103);
#107=DIRECTION('',(-7.071067811863E-1,0.E0,7.071067811868E-1));
#108=VECTOR('',#107,1.697056274848E0);
#109=CARTESIAN_POINT('',(6.E0,0.E0,4.38E1));
#110=LINE('',#109,#108);
#111=CURVE_STYLE('',#44,POSITIVE_LENGTH_MEASURE(2.E-2),#14);
#112=PRESENTATION_STYLE_ASSIGNMENT((#111));
#113=STYLED_ITEM('',(#112),#110);
#114=CARTESIAN_POINT('',(0.E0,0.E0,4.38E1));
#115=DIRECTION('',(0.E0,0.E0,1.E0));
#116=DIRECTION('',(-1.E0,0.E0,0.E0));
#117=AXIS2_PLACEMENT_3D('',#114,#115,#116);
#119=CURVE_STYLE('',#44,POSITIVE_LENGTH_MEASURE(2.E-2),#14);
#120=PRESENTATION_STYLE_ASSIGNMENT((#119));
#121=STYLED_ITEM('',(#120),#118);
#122=CARTESIAN_POINT('',(0.E0,0.E0,4.38E1));
#123=DIRECTION('',(0.E0,0.E0,-1.E0));
#124=DIRECTION('',(-1.E0,0.E0,0.E0));
#125=AXIS2_PLACEMENT_3D('',#122,#123,#124);
#127=CURVE_STYLE('',#44,POSITIVE_LENGTH_MEASURE(2.E-2),#14);
#128=PRESENTATION_STYLE_ASSIGNMENT((#127));
#129=STYLED_ITEM('',(#128),#126);
#130=CARTESIAN_POINT('',(0.E0,0.E0,4.5E1));
#131=DIRECTION('',(0.E0,0.E0,1.E0));
#132=DIRECTION('',(-1.E0,0.E0,0.E0));
#133=AXIS2_PLACEMENT_3D('',#130,#131,#132);
#135=CURVE_STYLE('',#44,POSITIVE_LENGTH_MEASURE(2.E-2),#14);
#136=PRESENTATION_STYLE_ASSIGNMENT((#135));
#137=STYLED_ITEM('',(#136),#134);
#138=CARTESIAN_POINT('',(0.E0,0.E0,4.5E1));
#139=DIRECTION('',(0.E0,0.E0,-1.E0));
#140=DIRECTION('',(-1.E0,0.E0,0.E0));
#141=AXIS2_PLACEMENT_3D('',#138,#139,#140);
#143=CURVE_STYLE('',#44,POSITIVE_LENGTH_MEASURE(2.E-2),#14);
#144=PRESENTATION_STYLE_ASSIGNMENT((#143));
#145=STYLED_ITEM('',(#144),#142);
#146=DIRECTION('',(-7.916496570593E-1,0.E0,6.109753026743E-1));
#147=VECTOR('',#146,7.288392481023E-1);
#148=CARTESIAN_POINT('',(0.E0,0.E0,-2.8E1));
#149=LINE('',#148,#147);
#150=CURVE_STYLE('',#44,POSITIVE_LENGTH_MEASURE(2.E-2),#14);
#151=PRESENTATION_STYLE_ASSIGNMENT((#150));
#152=STYLED_ITEM('',(#151),#149);
#153=DIRECTION('',(7.916496570593E-1,0.E0,6.109753026743E-1));
#154=VECTOR('',#153,7.288392481023E-1);
#155=CARTESIAN_POINT('',(0.E0,0.E0,-2.8E1));
#156=LINE('',#155,#154);
#157=CURVE_STYLE('',#44,POSITIVE_LENGTH_MEASURE(2.E-2),#14);
#158=PRESENTATION_STYLE_ASSIGNMENT((#157));
#159=STYLED_ITEM('',(#158),#156);
#160=CARTESIAN_POINT('',(-6.E0,0.E0,4.38E1));
#161=CARTESIAN_POINT('',(-4.800000000001E0,0.E0,4.5E1));
#162=VERTEX_POINT('',#160);
#163=VERTEX_POINT('',#161);
#164=CARTESIAN_POINT('',(6.E0,0.E0,4.38E1));
#165=CARTESIAN_POINT('',(4.800000000001E0,0.E0,4.5E1));
#166=VERTEX_POINT('',#164);
#167=VERTEX_POINT('',#165);
#168=CARTESIAN_POINT('',(0.E0,0.E0,-2.8E1));
#169=CARTESIAN_POINT('',(-5.769853408115E-1,0.E0,-2.755469721979E1));
#170=VERTEX_POINT('',#168);
#171=VERTEX_POINT('',#169);
#172=CARTESIAN_POINT('',(5.769853408115E-1,0.E0,-2.755469721979E1));
#173=VERTEX_POINT('',#172);
#174=CARTESIAN_POINT('',(-6.E0,0.E0,-2.213168256060E1));
#175=CARTESIAN_POINT('',(6.E0,0.E0,-2.213168256060E1));
#176=VERTEX_POINT('',#174);
#177=VERTEX_POINT('',#175);
#178=CARTESIAN_POINT('',(0.E0,0.E0,3.603448868792E1));
#179=DIRECTION('',(0.E0,0.E0,-1.E0));
#180=DIRECTION('',(1.E0,0.E0,0.E0));
#181=AXIS2_PLACEMENT_3D('',#178,#179,#180);
#182=CYLINDRICAL_SURFACE('',#181,6.E0);
#184=ORIENTED_EDGE('',*,*,#183,.T.);
#186=ORIENTED_EDGE('',*,*,#185,.T.);
#188=ORIENTED_EDGE('',*,*,#187,.F.);
#190=ORIENTED_EDGE('',*,*,#189,.F.);
#191=EDGE_LOOP('',(#184,#186,#188,#190));
#192=FACE_OUTER_BOUND('',#191,.F.);
#193=ADVANCED_FACE('',(#192),#182,.T.);
#194=FILL_AREA_STYLE_COLOUR('',#14);
#195=FILL_AREA_STYLE('',(#194));
#196=SURFACE_STYLE_FILL_AREA(#195);
#197=SURFACE_SIDE_STYLE('',(#196));
#198=SURFACE_STYLE_USAGE(.NEGATIVE.,#197);
#199=PRESENTATION_STYLE_ASSIGNMENT((#198));
#200=STYLED_ITEM('',(#199),#193);
#201=CARTESIAN_POINT('',(0.E0,0.E0,-2.484318989020E1));
#202=DIRECTION('',(0.E0,0.E0,1.E0));
#203=DIRECTION('',(-1.E0,0.E0,0.E0));
#204=AXIS2_PLACEMENT_3D('',#201,#202,#203);
#205=CONICAL_SURFACE('',#204,3.288492670406E0,4.500000000001E1);
#206=ORIENTED_EDGE('',*,*,#183,.F.);
#208=ORIENTED_EDGE('',*,*,#207,.F.);
#210=ORIENTED_EDGE('',*,*,#209,.T.);
#212=ORIENTED_EDGE('',*,*,#211,.T.);
#213=EDGE_LOOP('',(#206,#208,#210,#212));
#214=FACE_OUTER_BOUND('',#213,.F.);
#215=ADVANCED_FACE('',(#214),#205,.T.);
#216=FILL_AREA_STYLE_COLOUR('',#25);
#217=FILL_AREA_STYLE('',(#216));
#218=SURFACE_STYLE_FILL_AREA(#217);
#219=SURFACE_SIDE_STYLE('',(#218));
#220=SURFACE_STYLE_USAGE(.POSITIVE.,#219);
#221=FILL_AREA_STYLE_COLOUR('',#14);
#222=FILL_AREA_STYLE('',(#221));
#223=SURFACE_STYLE_FILL_AREA(#222);
#224=SURFACE_SIDE_STYLE('',(#223));
#225=SURFACE_STYLE_USAGE(.NEGATIVE.,#224);
#226=PRESENTATION_STYLE_ASSIGNMENT((#220,#225));
#227=OVER_RIDING_STYLED_ITEM('',(#226),#215,#38);
#228=CARTESIAN_POINT('',(0.E0,0.E0,-2.484318989020E1));
#229=DIRECTION('',(0.E0,0.E0,1.E0));
#230=DIRECTION('',(-1.E0,0.E0,0.E0));
#231=AXIS2_PLACEMENT_3D('',#228,#229,#230);
#232=CONICAL_SURFACE('',#231,3.288492670406E0,4.500000000001E1);
#234=ORIENTED_EDGE('',*,*,#233,.F.);
#235=ORIENTED_EDGE('',*,*,#211,.F.);
#237=ORIENTED_EDGE('',*,*,#236,.F.);
#238=ORIENTED_EDGE('',*,*,#207,.T.);
#239=EDGE_LOOP('',(#234,#235,#237,#238));
#240=FACE_OUTER_BOUND('',#239,.F.);
#241=ADVANCED_FACE('',(#240),#232,.T.);
#242=FILL_AREA_STYLE_COLOUR('',#25);
#243=FILL_AREA_STYLE('',(#242));
#244=SURFACE_STYLE_FILL_AREA(#243);
#245=SURFACE_SIDE_STYLE('',(#244));
#246=SURFACE_STYLE_USAGE(.POSITIVE.,#245);
#247=FILL_AREA_STYLE_COLOUR('',#14);
#248=FILL_AREA_STYLE('',(#247));
#249=SURFACE_STYLE_FILL_AREA(#248);
#250=SURFACE_SIDE_STYLE('',(#249));
#251=SURFACE_STYLE_USAGE(.NEGATIVE.,#250);
#252=PRESENTATION_STYLE_ASSIGNMENT((#246,#251));
#253=OVER_RIDING_STYLED_ITEM('',(#252),#241,#38);
#254=CARTESIAN_POINT('',(0.E0,0.E0,3.603448868792E1));
#255=DIRECTION('',(0.E0,0.E0,-1.E0));
#256=DIRECTION('',(1.E0,0.E0,0.E0));
#257=AXIS2_PLACEMENT_3D('',#254,#255,#256);
#258=CYLINDRICAL_SURFACE('',#257,6.E0);
#259=ORIENTED_EDGE('',*,*,#233,.T.);
#260=ORIENTED_EDGE('',*,*,#189,.T.);
#262=ORIENTED_EDGE('',*,*,#261,.T.);
#263=ORIENTED_EDGE('',*,*,#185,.F.);
#264=EDGE_LOOP('',(#259,#260,#262,#263));
#265=FACE_OUTER_BOUND('',#264,.F.);
#266=ADVANCED_FACE('',(#265),#258,.T.);
#267=FILL_AREA_STYLE_COLOUR('',#14);
#268=FILL_AREA_STYLE('',(#267));
#269=SURFACE_STYLE_FILL_AREA(#268);
#270=SURFACE_SIDE_STYLE('',(#269));
#271=SURFACE_STYLE_USAGE(.NEGATIVE.,#270);
#272=PRESENTATION_STYLE_ASSIGNMENT((#271));
#273=STYLED_ITEM('',(#272),#266);
#274=CARTESIAN_POINT('',(0.E0,0.E0,4.44E1));
#275=DIRECTION('',(0.E0,0.E0,-1.E0));
#276=DIRECTION('',(1.E0,0.E0,0.E0));
#277=AXIS2_PLACEMENT_3D('',#274,#275,#276);
#278=CONICAL_SURFACE('',#277,5.400000000001E0,4.499999999998E1);
#280=ORIENTED_EDGE('',*,*,#279,.T.);
#282=ORIENTED_EDGE('',*,*,#281,.T.);
#284=ORIENTED_EDGE('',*,*,#283,.F.);
#285=ORIENTED_EDGE('',*,*,#261,.F.);
#286=EDGE_LOOP('',(#280,#282,#284,#285));
#287=FACE_OUTER_BOUND('',#286,.F.);
#288=ADVANCED_FACE('',(#287),#278,.T.);
#289=FILL_AREA_STYLE_COLOUR('',#14);
#290=FILL_AREA_STYLE('',(#289));
#291=SURFACE_STYLE_FILL_AREA(#290);
#292=SURFACE_SIDE_STYLE('',(#291));
#293=SURFACE_STYLE_USAGE(.NEGATIVE.,#292);
#294=PRESENTATION_STYLE_ASSIGNMENT((#293));
#295=STYLED_ITEM('',(#294),#288);
#296=CARTESIAN_POINT('',(0.E0,0.E0,4.44E1));
#297=DIRECTION('',(0.E0,0.E0,-1.E0));
#298=DIRECTION('',(1.E0,0.E0,0.E0));
#299=AXIS2_PLACEMENT_3D('',#296,#297,#298);
#300=CONICAL_SURFACE('',#299,5.400000000001E0,4.499999999998E1);
#301=ORIENTED_EDGE('',*,*,#279,.F.);
#302=ORIENTED_EDGE('',*,*,#187,.T.);
#303=ORIENTED_EDGE('',*,*,#283,.T.);
#305=ORIENTED_EDGE('',*,*,#304,.F.);
#306=EDGE_LOOP('',(#301,#302,#303,#305));
#307=FACE_OUTER_BOUND('',#306,.F.);
#308=ADVANCED_FACE('',(#307),#300,.T.);
#309=FILL_AREA_STYLE_COLOUR('',#14);
#310=FILL_AREA_STYLE('',(#309));
#311=SURFACE_STYLE_FILL_AREA(#310);
#312=SURFACE_SIDE_STYLE('',(#311));
#313=SURFACE_STYLE_USAGE(.NEGATIVE.,#312);
#314=PRESENTATION_STYLE_ASSIGNMENT((#313));
#315=STYLED_ITEM('',(#314),#308);
#316=CARTESIAN_POINT('',(0.E0,0.E0,4.5E1));
#317=DIRECTION('',(0.E0,0.E0,-1.E0));
#318=DIRECTION('',(1.E0,0.E0,0.E0));
#319=AXIS2_PLACEMENT_3D('',#316,#317,#318);
#320=PLANE('',#319);
#321=ORIENTED_EDGE('',*,*,#281,.F.);
#322=ORIENTED_EDGE('',*,*,#304,.T.);
#323=EDGE_LOOP('',(#321,#322));
#324=FACE_OUTER_BOUND('',#323,.F.);
#325=ADVANCED_FACE('',(#324),#320,.F.);
#326=FILL_AREA_STYLE_COLOUR('',#14);
#327=FILL_AREA_STYLE('',(#326));
#328=SURFACE_STYLE_FILL_AREA(#327);
#329=SURFACE_SIDE_STYLE('',(#328));
#330=SURFACE_STYLE_USAGE(.BOTH.,#329);
#331=PRESENTATION_STYLE_ASSIGNMENT((#330));
#332=OVER_RIDING_STYLED_ITEM('',(#331),#325,#38);
#333=CARTESIAN_POINT('',(0.E0,0.E0,-2.777289558209E1));
#334=DIRECTION('',(0.E0,0.E0,1.E0));
#335=DIRECTION('',(-1.E0,0.E0,0.E0));
#336=AXIS2_PLACEMENT_3D('',#333,#334,#335);
#337=CONICAL_SURFACE('',#336,2.942625238139E-1,5.233994284536E1);
#339=ORIENTED_EDGE('',*,*,#338,.T.);
#340=ORIENTED_EDGE('',*,*,#236,.T.);
#342=ORIENTED_EDGE('',*,*,#341,.F.);
#343=EDGE_LOOP('',(#339,#340,#342));
#344=FACE_OUTER_BOUND('',#343,.F.);
#345=ADVANCED_FACE('',(#344),#337,.T.);
#346=FILL_AREA_STYLE_COLOUR('',#25);
#347=FILL_AREA_STYLE('',(#346));
#348=SURFACE_STYLE_FILL_AREA(#347);
#349=SURFACE_SIDE_STYLE('',(#348));
#350=SURFACE_STYLE_USAGE(.POSITIVE.,#349);
#351=FILL_AREA_STYLE_COLOUR('',#14);
#352=FILL_AREA_STYLE('',(#351));
#353=SURFACE_STYLE_FILL_AREA(#352);
#354=SURFACE_SIDE_STYLE('',(#353));
#355=SURFACE_STYLE_USAGE(.NEGATIVE.,#354);
#356=PRESENTATION_STYLE_ASSIGNMENT((#350,#355));
#357=OVER_RIDING_STYLED_ITEM('',(#356),#345,#38);
#358=CARTESIAN_POINT('',(0.E0,0.E0,-2.777289558209E1));
#359=DIRECTION('',(0.E0,0.E0,1.E0));
#360=DIRECTION('',(-1.E0,0.E0,0.E0));
#361=AXIS2_PLACEMENT_3D('',#358,#359,#360);
#362=CONICAL_SURFACE('',#361,2.942625238139E-1,5.233994284536E1);
#363=ORIENTED_EDGE('',*,*,#338,.F.);
#364=ORIENTED_EDGE('',*,*,#341,.T.);
#365=ORIENTED_EDGE('',*,*,#209,.F.);
#366=EDGE_LOOP('',(#363,#364,#365));
#367=FACE_OUTER_BOUND('',#366,.F.);
#368=ADVANCED_FACE('',(#367),#362,.T.);
#369=FILL_AREA_STYLE_COLOUR('',#25);
#370=FILL_AREA_STYLE('',(#369));
#371=SURFACE_STYLE_FILL_AREA(#370);
#372=SURFACE_SIDE_STYLE('',(#371));
#373=SURFACE_STYLE_USAGE(.POSITIVE.,#372);
#374=FILL_AREA_STYLE_COLOUR('',#14);
#375=FILL_AREA_STYLE('',(#374));
#376=SURFACE_STYLE_FILL_AREA(#375);
#377=SURFACE_SIDE_STYLE('',(#376));
#378=SURFACE_STYLE_USAGE(.NEGATIVE.,#377);
#379=PRESENTATION_STYLE_ASSIGNMENT((#373,#378));
#380=OVER_RIDING_STYLED_ITEM('',(#379),#368,#38);
#381=CLOSED_SHELL('',(#193,#215,#241,#266,#288,#308,#325,#345,#368));
#382=MANIFOLD_SOLID_BREP('',#381);
#383=FILL_AREA_STYLE_COLOUR('',#14);
#384=FILL_AREA_STYLE('',(#383));
#385=SURFACE_STYLE_FILL_AREA(#384);
#386=SURFACE_SIDE_STYLE('',(#385));
#387=SURFACE_STYLE_USAGE(.BOTH.,#386);
#388=PRESENTATION_STYLE_ASSIGNMENT((#387));
#38=STYLED_ITEM('',(#388),#382);
#389=CARTESIAN_POINT('PNT0',(0.E0,0.E0,0.E0));
#391=CARTESIAN_POINT('',(0.E0,0.E0,4.5E1));
#392=DIRECTION('',(0.E0,0.E0,1.E0));
#393=DIRECTION('',(1.E0,0.E0,0.E0));
#394=AXIS2_PLACEMENT_3D('PCS',#391,#392,#393);
#395=CURVE_STYLE('',#44,POSITIVE_LENGTH_MEASURE(2.E-2),#36);
#396=PRESENTATION_STYLE_ASSIGNMENT((#395));
#397=STYLED_ITEM('',(#396),#394);
#398=CARTESIAN_POINT('',(0.E0,0.E0,0.E0));
#399=DIRECTION('',(0.E0,0.E0,1.E0));
#400=DIRECTION('',(1.E0,0.E0,0.E0));
#401=AXIS2_PLACEMENT_3D('MCS',#398,#399,#400);
#402=CURVE_STYLE('',#44,POSITIVE_LENGTH_MEASURE(2.E-2),#36);
#403=PRESENTATION_STYLE_ASSIGNMENT((#402));
#404=STYLED_ITEM('',(#403),#401);
#405=CARTESIAN_POINT('',(0.E0,0.E0,-2.8E1));
#406=DIRECTION('',(0.E0,0.E0,1.E0));
#407=DIRECTION('',(1.E0,0.E0,0.E0));
#408=AXIS2_PLACEMENT_3D('CIP',#405,#406,#407);
#409=CURVE_STYLE('',#44,POSITIVE_LENGTH_MEASURE(2.E-2),#36);
#410=PRESENTATION_STYLE_ASSIGNMENT((#409));
#411=STYLED_ITEM('',(#410),#408);
#412=DIRECTION('',(0.E0,0.E0,1.E0));
#413=VECTOR('',#412,6.593168256060E1);
#414=CARTESIAN_POINT('',(-6.E0,0.E0,-2.213168256060E1));
#415=LINE('',#414,#413);
#417=CURVE_STYLE('',#44,POSITIVE_LENGTH_MEASURE(2.E-2),#35);
#418=PRESENTATION_STYLE_ASSIGNMENT((#417));
#419=STYLED_ITEM('',(#418),#416);
#421=DIRECTION('',(7.071067811863E-1,0.E0,7.071067811868E-1));
#422=VECTOR('',#421,1.697056274847E0);
#423=CARTESIAN_POINT('',(-6.E0,0.E0,4.38E1));
#424=LINE('',#423,#422);
#426=CURVE_STYLE('',#44,POSITIVE_LENGTH_MEASURE(2.E-2),#35);
#427=PRESENTATION_STYLE_ASSIGNMENT((#426));
#428=STYLED_ITEM('',(#427),#425);
#430=DIRECTION('',(1.E0,0.E0,0.E0));
#431=VECTOR('',#430,9.600000000001E0);
#432=CARTESIAN_POINT('',(-4.800000000001E0,0.E0,4.5E1));
#433=LINE('',#432,#431);
#435=CURVE_STYLE('',#44,POSITIVE_LENGTH_MEASURE(2.E-2),#35);
#436=PRESENTATION_STYLE_ASSIGNMENT((#435));
#437=STYLED_ITEM('',(#436),#434);
#439=DIRECTION('',(7.071067811863E-1,0.E0,-7.071067811868E-1));
#440=VECTOR('',#439,1.697056274847E0);
#441=CARTESIAN_POINT('',(4.800000000001E0,0.E0,4.5E1));
#442=LINE('',#441,#440);
#444=CURVE_STYLE('',#44,POSITIVE_LENGTH_MEASURE(2.E-2),#35);
#445=PRESENTATION_STYLE_ASSIGNMENT((#444));
#446=STYLED_ITEM('',(#445),#443);
#448=DIRECTION('',(0.E0,0.E0,-1.E0));
#449=VECTOR('',#448,6.593168256060E1);
#450=CARTESIAN_POINT('',(6.E0,0.E0,4.38E1));
#451=LINE('',#450,#449);
#453=CURVE_STYLE('',#44,POSITIVE_LENGTH_MEASURE(2.E-2),#35);
#454=PRESENTATION_STYLE_ASSIGNMENT((#453));
#455=STYLED_ITEM('',(#454),#452);
#458=FILL_AREA_STYLE_COLOUR('',#14);
#459=FILL_AREA_STYLE('',(#458));
#460=SURFACE_STYLE_FILL_AREA(#459);
#461=SURFACE_SIDE_STYLE('',(#460));
#462=SURFACE_STYLE_USAGE(.POSITIVE.,#461);
#463=PRESENTATION_STYLE_ASSIGNMENT((#462));
#464=STYLED_ITEM('',(#463),#457);
#465=CURVE_STYLE('',#44,POSITIVE_LENGTH_MEASURE(2.E-2),#14);
#466=PRESENTATION_STYLE_ASSIGNMENT((#465));
#467=STYLED_ITEM('',(#466),#457);
#468=DIRECTION('',(1.E0,0.E0,0.E0));
#469=VECTOR('',#468,4.800000000001E0);
#470=CARTESIAN_POINT('',(0.E0,0.E0,4.5E1));
#471=LINE('',#470,#469);
#473=CURVE_STYLE('',#44,POSITIVE_LENGTH_MEASURE(2.E-2),#35);
#474=PRESENTATION_STYLE_ASSIGNMENT((#473));
#475=STYLED_ITEM('',(#474),#472);
#477=DIRECTION('',(7.071067811863E-1,0.E0,-7.071067811868E-1));
#478=VECTOR('',#477,1.697056274847E0);
#479=CARTESIAN_POINT('',(4.800000000001E0,0.E0,4.5E1));
#480=LINE('',#479,#478);
#482=CURVE_STYLE('',#44,POSITIVE_LENGTH_MEASURE(2.E-2),#35);
#483=PRESENTATION_STYLE_ASSIGNMENT((#482));
#484=STYLED_ITEM('',(#483),#481);
#486=DIRECTION('',(0.E0,0.E0,-1.E0));
#487=VECTOR('',#486,6.593168256060E1);
#488=CARTESIAN_POINT('',(6.E0,0.E0,4.38E1));
#489=LINE('',#488,#487);
#491=CURVE_STYLE('',#44,POSITIVE_LENGTH_MEASURE(2.E-2),#35);
#492=PRESENTATION_STYLE_ASSIGNMENT((#491));
#493=STYLED_ITEM('',(#492),#490);
#496=FILL_AREA_STYLE_COLOUR('',#14);
#497=FILL_AREA_STYLE('',(#496));
#498=SURFACE_STYLE_FILL_AREA(#497);
#499=SURFACE_SIDE_STYLE('',(#498));
#500=SURFACE_STYLE_USAGE(.POSITIVE.,#499);
#501=PRESENTATION_STYLE_ASSIGNMENT((#500));
#502=STYLED_ITEM('',(#501),#495);
#503=CURVE_STYLE('',#44,POSITIVE_LENGTH_MEASURE(2.E-2),#14);
#504=PRESENTATION_STYLE_ASSIGNMENT((#503));
#505=STYLED_ITEM('',(#504),#495);
#506=DIRECTION('',(-7.071067811866E-1,0.E0,-7.071067811865E-1));
#507=VECTOR('',#506,7.669300879972E0);
#508=CARTESIAN_POINT('',(6.E0,0.E0,-2.213168256060E1));
#509=LINE('',#508,#507);
#511=CURVE_STYLE('',#44,POSITIVE_LENGTH_MEASURE(2.E-2),#35);
#512=PRESENTATION_STYLE_ASSIGNMENT((#511));
#513=STYLED_ITEM('',(#512),#510);
#515=DIRECTION('',(-7.916496570593E-1,0.E0,-6.109753026743E-1));
#516=VECTOR('',#515,7.288392481023E-1);
#517=CARTESIAN_POINT('',(5.769853408115E-1,0.E0,-2.755469721979E1));
#518=LINE('',#517,#516);
#520=CURVE_STYLE('',#44,POSITIVE_LENGTH_MEASURE(2.E-2),#35);
#521=PRESENTATION_STYLE_ASSIGNMENT((#520));
#522=STYLED_ITEM('',(#521),#519);
#524=DIRECTION('',(-7.916496570593E-1,0.E0,6.109753026743E-1));
#525=VECTOR('',#524,7.288392481023E-1);
#526=CARTESIAN_POINT('',(0.E0,0.E0,-2.8E1));
#527=LINE('',#526,#525);
#529=CURVE_STYLE('',#44,POSITIVE_LENGTH_MEASURE(2.E-2),#35);
#530=PRESENTATION_STYLE_ASSIGNMENT((#529));
#531=STYLED_ITEM('',(#530),#528);
#533=DIRECTION('',(-7.071067811866E-1,0.E0,7.071067811865E-1));
#534=VECTOR('',#533,7.669300879972E0);
#535=CARTESIAN_POINT('',(-5.769853408115E-1,0.E0,-2.755469721979E1));
#536=LINE('',#535,#534);
#538=CURVE_STYLE('',#44,POSITIVE_LENGTH_MEASURE(2.E-2),#35);
#539=PRESENTATION_STYLE_ASSIGNMENT((#538));
#540=STYLED_ITEM('',(#539),#537);
#543=FILL_AREA_STYLE_COLOUR('',#14);
#544=FILL_AREA_STYLE('',(#543));
#545=SURFACE_STYLE_FILL_AREA(#544);
#546=SURFACE_SIDE_STYLE('',(#545));
#547=SURFACE_STYLE_USAGE(.POSITIVE.,#546);
#548=PRESENTATION_STYLE_ASSIGNMENT((#547));
#549=STYLED_ITEM('',(#548),#542);
#550=CURVE_STYLE('',#44,POSITIVE_LENGTH_MEASURE(2.E-2),#14);
#551=PRESENTATION_STYLE_ASSIGNMENT((#550));
#552=STYLED_ITEM('',(#551),#542);
#553=DIRECTION('',(-7.071067811866E-1,0.E0,-7.071067811865E-1));
#554=VECTOR('',#553,7.669300879972E0);
#555=CARTESIAN_POINT('',(6.E0,0.E0,-2.213168256060E1));
#556=LINE('',#555,#554);
#558=CURVE_STYLE('',#44,POSITIVE_LENGTH_MEASURE(2.E-2),#35);
#559=PRESENTATION_STYLE_ASSIGNMENT((#558));
#560=STYLED_ITEM('',(#559),#557);
#562=DIRECTION('',(-7.916496570593E-1,0.E0,-6.109753026743E-1));
#563=VECTOR('',#562,7.288392481023E-1);
#564=CARTESIAN_POINT('',(5.769853408115E-1,0.E0,-2.755469721979E1));
#565=LINE('',#564,#563);
#567=CURVE_STYLE('',#44,POSITIVE_LENGTH_MEASURE(2.E-2),#35);
#568=PRESENTATION_STYLE_ASSIGNMENT((#567));
#569=STYLED_ITEM('',(#568),#566);
#572=FILL_AREA_STYLE_COLOUR('',#14);
#573=FILL_AREA_STYLE('',(#572));
#574=SURFACE_STYLE_FILL_AREA(#573);
#575=SURFACE_SIDE_STYLE('',(#574));
#576=SURFACE_STYLE_USAGE(.POSITIVE.,#575);
#577=PRESENTATION_STYLE_ASSIGNMENT((#576));
#578=STYLED_ITEM('',(#577),#571);
#579=CURVE_STYLE('',#44,POSITIVE_LENGTH_MEASURE(2.E-2),#14);
#580=PRESENTATION_STYLE_ASSIGNMENT((#579));
#581=STYLED_ITEM('',(#580),#571);
#582=PRESENTATION_LAYER_ASSIGNMENT('CUT','',(#571));
#583=PRESENTATION_LAYER_ASSIGNMENT('CUTTER','',(#542));
#584=PRESENTATION_LAYER_ASSIGNMENT('DIN4003','',(#394,#401,#408));
#585=PRESENTATION_LAYER_ASSIGNMENT('HOLDER','',(#457));
#586=PRESENTATION_LAYER_ASSIGNMENT('NOCUT','',(#495));
#588=DIMENSIONAL_EXPONENTS(0.E0,0.E0,0.E0,0.E0,0.E0,0.E0,0.E0);
#590=PLANE_ANGLE_MEASURE_WITH_UNIT(PLANE_ANGLE_MEASURE(1.745329251994E-2),#589);
#591=(CONVERSION_BASED_UNIT('DEGREE',#590)NAMED_UNIT(#588)PLANE_ANGLE_UNIT());
#593=UNCERTAINTY_MEASURE_WITH_UNIT(LENGTH_MEASURE(1.E-3),#587,
'distance_accuracy_value',
'Maximum model space distance between geometric entities at asserted connectivities');
#594=(GEOMETRIC_REPRESENTATION_CONTEXT(3)GLOBAL_UNCERTAINTY_ASSIGNED_CONTEXT((
#593))GLOBAL_UNIT_ASSIGNED_CONTEXT((#587,#591,#592))REPRESENTATION_CONTEXT
('ID1','3'));
#390=GEOMETRIC_SET('',(#389,#457,#495,#542,#571));
#598=SHAPE_REPRESENTATION_RELATIONSHIP('','',#597,#595);
#599=SHAPE_REPRESENTATION_RELATIONSHIP('','',#597,#596);
#600=MECHANICAL_DESIGN_GEOMETRIC_PRESENTATION_REPRESENTATION('',(#47,#55,#62,
#70,#77,#85,#92,#99,#106,#113,#121,#129,#137,#145,#152,#159,#200,#227,#253,#273,
#295,#315,#332,#357,#380,#38,#397,#404,#411,#419,#428,#437,#446,#455,#464,#467,
#475,#484,#493,#502,#505,#513,#522,#531,#540,#549,#552,#560,#569,#578,#581),
#594);
#601=APPLICATION_CONTEXT('automotive_design');
#602=APPLICATION_PROTOCOL_DEFINITION('draft international standard',
'automotive_design',1998,#601);
#603=PRODUCT_DEFINITION_CONTEXT('part definition',#601,'design');
#604=PRODUCT_CONTEXT('',#601,'mechanical');
#605=PRODUCT('607095101-000-00-E43','607095101-000-00-E43','NOT SPECIFIED',
(#604));
#606=PRODUCT_DEFINITION_FORMATION_WITH_SPECIFIED_SOURCE('1','LAST_VERSION',#605,
.MADE.);
#610=PRODUCT_TYPE('part','',(#605));
#43=CIRCLE('',#42,6.E0);
#52=CIRCLE('',#51,5.769853408115E-1);
#67=CIRCLE('',#66,5.769853408115E-1);
#82=CIRCLE('',#81,6.E0);
#118=CIRCLE('',#117,6.000000000001E0);
#126=CIRCLE('',#125,6.000000000001E0);
#134=CIRCLE('',#133,4.800000000001E0);
#142=CIRCLE('',#141,4.800000000001E0);
#183=EDGE_CURVE('',#176,#177,#43,.T.);
#185=EDGE_CURVE('',#177,#166,#96,.T.);
#187=EDGE_CURVE('',#162,#166,#126,.T.);
#189=EDGE_CURVE('',#176,#162,#89,.T.);
#207=EDGE_CURVE('',#171,#176,#74,.T.);
#209=EDGE_CURVE('',#171,#173,#52,.T.);
#211=EDGE_CURVE('',#173,#177,#59,.T.);
#233=EDGE_CURVE('',#177,#176,#82,.T.);
#236=EDGE_CURVE('',#171,#173,#67,.T.);
#261=EDGE_CURVE('',#162,#166,#118,.T.);
#279=EDGE_CURVE('',#162,#163,#103,.T.);
#281=EDGE_CURVE('',#163,#167,#134,.T.);
#283=EDGE_CURVE('',#166,#167,#110,.T.);
#304=EDGE_CURVE('',#163,#167,#142,.T.);
#338=EDGE_CURVE('',#170,#171,#149,.T.);
#341=EDGE_CURVE('',#170,#173,#156,.T.);
#416=TRIMMED_CURVE('',#415,(PARAMETER_VALUE(0.E0)),(PARAMETER_VALUE(1.E0)),.T.,
.UNSPECIFIED.);
#420=COMPOSITE_CURVE_SEGMENT(.CONTINUOUS.,.T.,#416);
#425=TRIMMED_CURVE('',#424,(PARAMETER_VALUE(0.E0)),(PARAMETER_VALUE(1.E0)),.T.,
.UNSPECIFIED.);
#429=COMPOSITE_CURVE_SEGMENT(.CONTINUOUS.,.T.,#425);
#434=TRIMMED_CURVE('',#433,(PARAMETER_VALUE(0.E0)),(PARAMETER_VALUE(1.E0)),.T.,
.UNSPECIFIED.);
#438=COMPOSITE_CURVE_SEGMENT(.CONTINUOUS.,.T.,#434);
#443=TRIMMED_CURVE('',#442,(PARAMETER_VALUE(0.E0)),(PARAMETER_VALUE(1.E0)),.T.,
.UNSPECIFIED.);
#447=COMPOSITE_CURVE_SEGMENT(.CONTINUOUS.,.T.,#443);
#452=TRIMMED_CURVE('',#451,(PARAMETER_VALUE(0.E0)),(PARAMETER_VALUE(1.E0)),.T.,
.UNSPECIFIED.);
#456=COMPOSITE_CURVE_SEGMENT(.CONTINUOUS.,.T.,#452);
#457=COMPOSITE_CURVE('',(#420,#429,#438,#447,#456),.F.);
#472=TRIMMED_CURVE('',#471,(PARAMETER_VALUE(0.E0)),(PARAMETER_VALUE(1.E0)),.T.,
.UNSPECIFIED.);
#476=COMPOSITE_CURVE_SEGMENT(.CONTINUOUS.,.T.,#472);
#481=TRIMMED_CURVE('',#480,(PARAMETER_VALUE(0.E0)),(PARAMETER_VALUE(1.E0)),.T.,
.UNSPECIFIED.);
#485=COMPOSITE_CURVE_SEGMENT(.CONTINUOUS.,.T.,#481);
#490=TRIMMED_CURVE('',#489,(PARAMETER_VALUE(0.E0)),(PARAMETER_VALUE(1.E0)),.T.,
.UNSPECIFIED.);
#494=COMPOSITE_CURVE_SEGMENT(.CONTINUOUS.,.T.,#490);
#495=COMPOSITE_CURVE('',(#476,#485,#494),.F.);
#510=TRIMMED_CURVE('',#509,(PARAMETER_VALUE(0.E0)),(PARAMETER_VALUE(1.E0)),.T.,
.UNSPECIFIED.);
#514=COMPOSITE_CURVE_SEGMENT(.CONTINUOUS.,.T.,#510);
#519=TRIMMED_CURVE('',#518,(PARAMETER_VALUE(0.E0)),(PARAMETER_VALUE(1.E0)),.T.,
.UNSPECIFIED.);
#523=COMPOSITE_CURVE_SEGMENT(.CONTINUOUS.,.T.,#519);
#528=TRIMMED_CURVE('',#527,(PARAMETER_VALUE(0.E0)),(PARAMETER_VALUE(1.E0)),.T.,
.UNSPECIFIED.);
#532=COMPOSITE_CURVE_SEGMENT(.CONTINUOUS.,.T.,#528);
#537=TRIMMED_CURVE('',#536,(PARAMETER_VALUE(0.E0)),(PARAMETER_VALUE(1.E0)),.T.,
.UNSPECIFIED.);
#541=COMPOSITE_CURVE_SEGMENT(.CONTINUOUS.,.T.,#537);
#542=COMPOSITE_CURVE('',(#514,#523,#532,#541),.F.);
#557=TRIMMED_CURVE('',#556,(PARAMETER_VALUE(0.E0)),(PARAMETER_VALUE(1.E0)),.T.,
.UNSPECIFIED.);
#561=COMPOSITE_CURVE_SEGMENT(.CONTINUOUS.,.T.,#557);
#566=TRIMMED_CURVE('',#565,(PARAMETER_VALUE(0.E0)),(PARAMETER_VALUE(1.E0)),.T.,
.UNSPECIFIED.);
#570=COMPOSITE_CURVE_SEGMENT(.CONTINUOUS.,.T.,#566);
#571=COMPOSITE_CURVE('',(#561,#570),.F.);
#587=(LENGTH_UNIT()NAMED_UNIT(*)SI_UNIT(.MILLI.,.METRE.));
#589=(NAMED_UNIT(*)PLANE_ANGLE_UNIT()SI_UNIT($,.RADIAN.));
#592=(NAMED_UNIT(*)SI_UNIT($,.STERADIAN.)SOLID_ANGLE_UNIT());
#595=ADVANCED_BREP_SHAPE_REPRESENTATION('',(#382),#594);
#596=GEOMETRICALLY_BOUNDED_SURFACE_SHAPE_REPRESENTATION('',(#390),#594);
#597=SHAPE_REPRESENTATION('',(#394,#401,#408),#594);
#607=PRODUCT_DEFINITION('part definition','',#606,#603);
#608=PRODUCT_DEFINITION_SHAPE('','SHAPE FOR 607095101-000-00-E43.',#607);
#609=SHAPE_DEFINITION_REPRESENTATION(#608,#597);
ENDSEC;
END-ISO-10303-21;
