ISO-10303-21;
HEADER;
FILE_DESCRIPTION(('STEP AP242'),'1');
FILE_NAME('607410681-000-02-E43.stp','2021-11-25T10:16:28',(' '),(' '),'Spatial InterOp 3D',' ',' ');
FILE_SCHEMA(('AP242_MANAGED_MODEL_BASED_3D_ENGINEERING_MIM_LF  {1 0 10303 442 1 1 4}'));
ENDSEC;
DATA;
#1=MECHANICAL_DESIGN_GEOMETRIC_PRESENTATION_REPRESENTATION(' ',(#12,#13,#14,#15,#16,#17,#18,#19,#20,#21,#22,#23,#24,#25,#26,#27,#28,#29,#30),#8);
#2=PRODUCT_DEFINITION_CONTEXT('',#31,'design');
#3=APPLICATION_PROTOCOL_DEFINITION('INTERNATIONAL STANDARD','ap242_managed_model_based_3d_engineering',2014,#31);
#4=PRODUCT_CATEGORY_RELATIONSHIP('NONE','NONE',#32,#33);
#5=SHAPE_DEFINITION_REPRESENTATION(#34,#35);
#6=SHAPE_DEFINITION_REPRESENTATION(#34,#36);
#7=SHAPE_DEFINITION_REPRESENTATION(#34,#37);
#8= (GEOMETRIC_REPRESENTATION_CONTEXT(3)GLOBAL_UNCERTAINTY_ASSIGNED_CONTEXT((#40))GLOBAL_UNIT_ASSIGNED_CONTEXT((#42,#43,#44))REPRESENTATION_CONTEXT('NONE','WORKSPACE'));
#12=STYLED_ITEM('',(#46),#47);
#13=STYLED_ITEM('',(#48),#49);
#14=STYLED_ITEM('',(#50),#51);
#15=STYLED_ITEM('',(#52),#53);
#16=STYLED_ITEM('',(#54),#55);
#17=STYLED_ITEM('',(#56),#57);
#18=STYLED_ITEM('',(#58),#59);
#19=STYLED_ITEM('',(#60),#61);
#20=STYLED_ITEM('',(#62),#63);
#21=STYLED_ITEM('',(#64),#65);
#22=STYLED_ITEM('',(#66),#67);
#23=STYLED_ITEM('',(#68),#69);
#24=STYLED_ITEM('',(#70),#71);
#25=STYLED_ITEM('',(#72),#73);
#26=STYLED_ITEM('',(#74),#75);
#27=STYLED_ITEM('',(#76),#77);
#28=STYLED_ITEM('',(#78),#79);
#29=STYLED_ITEM('',(#80),#81);
#30=STYLED_ITEM('',(#82),#83);
#31=APPLICATION_CONTEXT('managed model based 3d engineering');
#32=PRODUCT_CATEGORY('part','NONE');
#33=PRODUCT_RELATED_PRODUCT_CATEGORY('detail',' ',(#84));
#34=PRODUCT_DEFINITION_SHAPE('NONE','NONE',#85);
#35=ADVANCED_BREP_SHAPE_REPRESENTATION('1',(#86,#87),#8);
#36=ADVANCED_BREP_SHAPE_REPRESENTATION('2',(#88,#89),#8);
#37=GEOMETRICALLY_BOUNDED_SURFACE_SHAPE_REPRESENTATION('3',(#90,#91),#8);
#40=UNCERTAINTY_MEASURE_WITH_UNIT(LENGTH_MEASURE(1.0E-06),#42,'','');
#42= (CONVERSION_BASED_UNIT('MILLIMETRE',#94)LENGTH_UNIT()NAMED_UNIT(#97));
#43= (NAMED_UNIT(#99)PLANE_ANGLE_UNIT()SI_UNIT($,.RADIAN.));
#44= (NAMED_UNIT(#99)SOLID_ANGLE_UNIT()SI_UNIT($,.STERADIAN.));
#46=PRESENTATION_STYLE_ASSIGNMENT((#105));
#47=COMPOSITE_CURVE('',(#106),.U.);
#48=PRESENTATION_STYLE_ASSIGNMENT((#107));
#49=COMPOSITE_CURVE('',(#108),.U.);
#50=PRESENTATION_STYLE_ASSIGNMENT((#109));
#51=ADVANCED_FACE('',(#110),#111,.T.);
#52=PRESENTATION_STYLE_ASSIGNMENT((#112));
#53=ADVANCED_FACE('',(#113),#114,.T.);
#54=PRESENTATION_STYLE_ASSIGNMENT((#115));
#55=ADVANCED_FACE('',(#116),#117,.T.);
#56=PRESENTATION_STYLE_ASSIGNMENT((#118));
#57=ADVANCED_FACE('',(#119),#120,.T.);
#58=PRESENTATION_STYLE_ASSIGNMENT((#121));
#59=ADVANCED_FACE('',(#122),#123,.T.);
#60=PRESENTATION_STYLE_ASSIGNMENT((#124));
#61=ADVANCED_FACE('',(#125),#126,.T.);
#62=PRESENTATION_STYLE_ASSIGNMENT((#127));
#63=ADVANCED_FACE('',(#128),#129,.T.);
#64=PRESENTATION_STYLE_ASSIGNMENT((#130));
#65=ADVANCED_FACE('',(#131),#132,.T.);
#66=PRESENTATION_STYLE_ASSIGNMENT((#133));
#67=ADVANCED_FACE('',(#134),#135,.T.);
#68=PRESENTATION_STYLE_ASSIGNMENT((#136));
#69=ADVANCED_FACE('',(#137),#138,.T.);
#70=PRESENTATION_STYLE_ASSIGNMENT((#139));
#71=ADVANCED_FACE('',(#140),#141,.T.);
#72=PRESENTATION_STYLE_ASSIGNMENT((#142));
#73=ADVANCED_FACE('',(#143),#144,.T.);
#74=PRESENTATION_STYLE_ASSIGNMENT((#145));
#75=ADVANCED_FACE('',(#146),#147,.T.);
#76=PRESENTATION_STYLE_ASSIGNMENT((#148));
#77=ADVANCED_FACE('',(#149),#150,.T.);
#78=PRESENTATION_STYLE_ASSIGNMENT((#151));
#79=ADVANCED_FACE('',(#152),#153,.T.);
#80=PRESENTATION_STYLE_ASSIGNMENT((#154));
#81=ADVANCED_FACE('',(#155),#156,.T.);
#82=PRESENTATION_STYLE_ASSIGNMENT((#157));
#83=ADVANCED_FACE('',(#158),#159,.T.);
#84=PRODUCT('1','','PART--DESC',(#160));
#85=PRODUCT_DEFINITION('','NONE',#161,#2);
#86=MANIFOLD_SOLID_BREP('1',#162);
#87=AXIS2_PLACEMENT_3D('',#163,#164,#165);
#88=MANIFOLD_SOLID_BREP('2',#166);
#89=AXIS2_PLACEMENT_3D('',#167,#168,#169);
#90=GEOMETRIC_SET('3',(#47,#49));
#91=AXIS2_PLACEMENT_3D('',#170,#171,#172);
#94=LENGTH_MEASURE_WITH_UNIT(LENGTH_MEASURE(1.0),#173);
#97=DIMENSIONAL_EXPONENTS(1.0,0.0,0.0,0.0,0.0,0.0,0.0);
#99=DIMENSIONAL_EXPONENTS(0.0,0.0,0.0,0.0,0.0,0.0,0.0);
#105=CURVE_STYLE('',#174,POSITIVE_LENGTH_MEASURE(1.0E-06),#175);
#106=COMPOSITE_CURVE_SEGMENT(.CONTINUOUS.,.T.,#176);
#107=CURVE_STYLE('',#177,POSITIVE_LENGTH_MEASURE(1.0E-06),#178);
#108=COMPOSITE_CURVE_SEGMENT(.CONTINUOUS.,.T.,#179);
#109=SURFACE_STYLE_USAGE(.BOTH.,#180);
#110=FACE_OUTER_BOUND('',#181,.T.);
#111=SPHERICAL_SURFACE('',#182,2.0);
#112=SURFACE_STYLE_USAGE(.BOTH.,#183);
#113=FACE_OUTER_BOUND('',#184,.T.);
#114=CYLINDRICAL_SURFACE('',#185,2.0);
#115=SURFACE_STYLE_USAGE(.BOTH.,#186);
#116=FACE_OUTER_BOUND('',#187,.T.);
#117=PLANE('',#188);
#118=SURFACE_STYLE_USAGE(.BOTH.,#189);
#119=FACE_OUTER_BOUND('',#190,.T.);
#120=CYLINDRICAL_SURFACE('',#191,2.0);
#121=SURFACE_STYLE_USAGE(.BOTH.,#192);
#122=FACE_OUTER_BOUND('',#193,.T.);
#123=SPHERICAL_SURFACE('',#194,2.0);
#124=SURFACE_STYLE_USAGE(.BOTH.,#195);
#125=FACE_OUTER_BOUND('',#196,.T.);
#126=CYLINDRICAL_SURFACE('',#197,1.97);
#127=SURFACE_STYLE_USAGE(.BOTH.,#198);
#128=FACE_OUTER_BOUND('',#199,.T.);
#129=CONICAL_SURFACE('',#200,2.06599554569835,0.00872664625996925);
#130=SURFACE_STYLE_USAGE(.BOTH.,#201);
#131=FACE_OUTER_BOUND('',#202,.T.);
#132=CONICAL_SURFACE('',#203,2.58099554569835,0.20943951023932);
#133=SURFACE_STYLE_USAGE(.BOTH.,#204);
#134=FACE_OUTER_BOUND('',#205,.T.);
#135=CYLINDRICAL_SURFACE('',#206,3.0);
#136=SURFACE_STYLE_USAGE(.BOTH.,#207);
#137=FACE_OUTER_BOUND('',#208,.T.);
#138=CONICAL_SURFACE('',#209,2.75,0.785398163397448);
#139=SURFACE_STYLE_USAGE(.BOTH.,#210);
#140=FACE_OUTER_BOUND('',#211,.T.);
#141=PLANE('',#212);
#142=SURFACE_STYLE_USAGE(.BOTH.,#213);
#143=FACE_OUTER_BOUND('',#214,.T.);
#144=CONICAL_SURFACE('',#215,2.75,0.785398163397448);
#145=SURFACE_STYLE_USAGE(.BOTH.,#216);
#146=FACE_OUTER_BOUND('',#217,.T.);
#147=CYLINDRICAL_SURFACE('',#218,3.0);
#148=SURFACE_STYLE_USAGE(.BOTH.,#219);
#149=FACE_OUTER_BOUND('',#220,.T.);
#150=CONICAL_SURFACE('',#221,2.58099554569835,0.20943951023932);
#151=SURFACE_STYLE_USAGE(.BOTH.,#222);
#152=FACE_OUTER_BOUND('',#223,.T.);
#153=CONICAL_SURFACE('',#224,2.06599554569835,0.00872664625996925);
#154=SURFACE_STYLE_USAGE(.BOTH.,#225);
#155=FACE_OUTER_BOUND('',#226,.T.);
#156=CYLINDRICAL_SURFACE('',#227,1.97);
#157=SURFACE_STYLE_USAGE(.BOTH.,#228);
#158=FACE_OUTER_BOUND('',#229,.T.);
#159=PLANE('',#230);
#160=PRODUCT_CONTEXT('',#31,'mechanical');
#161=PRODUCT_DEFINITION_FORMATION_WITH_SPECIFIED_SOURCE(' ','NONE',#84,.NOT_KNOWN.);
#162=CLOSED_SHELL('',(#51,#53,#55,#57,#59));
#163=CARTESIAN_POINT('',(0.0,0.0,0.0));
#164=DIRECTION('',(0.0,0.0,1.0));
#165=DIRECTION('',(1.0,0.0,0.0));
#166=CLOSED_SHELL('',(#61,#63,#65,#67,#69,#71,#73,#75,#77,#79,#81,#83));
#167=CARTESIAN_POINT('',(0.0,0.0,0.0));
#168=DIRECTION('',(0.0,0.0,1.0));
#169=DIRECTION('',(1.0,0.0,0.0));
#170=CARTESIAN_POINT('',(0.0,0.0,0.0));
#171=DIRECTION('',(0.0,0.0,1.0));
#172=DIRECTION('',(1.0,0.0,0.0));
#173= (NAMED_UNIT(#97)LENGTH_UNIT()SI_UNIT(.MILLI.,.METRE.));
#174=DRAUGHTING_PRE_DEFINED_CURVE_FONT('continuous');
#175=COLOUR_RGB('',0.0,1.0,0.0);
#176=TRIMMED_CURVE('',#232,(PARAMETER_VALUE(0.0)),(PARAMETER_VALUE(3.0)),.T.,.UNSPECIFIED.);
#177=DRAUGHTING_PRE_DEFINED_CURVE_FONT('continuous');
#178=COLOUR_RGB('',0.0,1.0,0.0);
#179=TRIMMED_CURVE('',#233,(PARAMETER_VALUE(0.0)),(PARAMETER_VALUE(3.0)),.T.,.UNSPECIFIED.);
#180=SURFACE_SIDE_STYLE('',(#234));
#181=EDGE_LOOP('',(#235,#236,#237));
#182=AXIS2_PLACEMENT_3D('',#238,#239,#240);
#183=SURFACE_SIDE_STYLE('',(#241));
#184=EDGE_LOOP('',(#242,#243,#244,#245,#246));
#185=AXIS2_PLACEMENT_3D('',#247,#248,#249);
#186=SURFACE_SIDE_STYLE('',(#250));
#187=EDGE_LOOP('',(#251,#252));
#188=AXIS2_PLACEMENT_3D('',#253,#254,#255);
#189=SURFACE_SIDE_STYLE('',(#256));
#190=EDGE_LOOP('',(#257,#258,#259,#260,#261));
#191=AXIS2_PLACEMENT_3D('',#262,#263,#264);
#192=SURFACE_SIDE_STYLE('',(#265));
#193=EDGE_LOOP('',(#266,#267,#268));
#194=AXIS2_PLACEMENT_3D('',#269,#270,#271);
#195=SURFACE_SIDE_STYLE('',(#272));
#196=EDGE_LOOP('',(#273,#274,#275,#276));
#197=AXIS2_PLACEMENT_3D('',#277,#278,#279);
#198=SURFACE_SIDE_STYLE('',(#280));
#199=EDGE_LOOP('',(#281,#282,#283,#284));
#200=AXIS2_PLACEMENT_3D('',#285,#286,#287);
#201=SURFACE_SIDE_STYLE('',(#288));
#202=EDGE_LOOP('',(#289,#290,#291,#292));
#203=AXIS2_PLACEMENT_3D('',#293,#294,#295);
#204=SURFACE_SIDE_STYLE('',(#296));
#205=EDGE_LOOP('',(#297,#298,#299,#300));
#206=AXIS2_PLACEMENT_3D('',#301,#302,#303);
#207=SURFACE_SIDE_STYLE('',(#304));
#208=EDGE_LOOP('',(#305,#306,#307,#308));
#209=AXIS2_PLACEMENT_3D('',#309,#310,#311);
#210=SURFACE_SIDE_STYLE('',(#312));
#211=EDGE_LOOP('',(#313,#314));
#212=AXIS2_PLACEMENT_3D('',#315,#316,#317);
#213=SURFACE_SIDE_STYLE('',(#318));
#214=EDGE_LOOP('',(#319,#320,#321,#322));
#215=AXIS2_PLACEMENT_3D('',#323,#324,#325);
#216=SURFACE_SIDE_STYLE('',(#326));
#217=EDGE_LOOP('',(#327,#328,#329,#330));
#218=AXIS2_PLACEMENT_3D('',#331,#332,#333);
#219=SURFACE_SIDE_STYLE('',(#334));
#220=EDGE_LOOP('',(#335,#336,#337,#338));
#221=AXIS2_PLACEMENT_3D('',#339,#340,#341);
#222=SURFACE_SIDE_STYLE('',(#342));
#223=EDGE_LOOP('',(#343,#344,#345,#346));
#224=AXIS2_PLACEMENT_3D('',#347,#348,#349);
#225=SURFACE_SIDE_STYLE('',(#350));
#226=EDGE_LOOP('',(#351,#352,#353,#354));
#227=AXIS2_PLACEMENT_3D('',#355,#356,#357);
#228=SURFACE_SIDE_STYLE('',(#358));
#229=EDGE_LOOP('',(#359,#360));
#230=AXIS2_PLACEMENT_3D('',#361,#362,#363);
#232=LINE('',#364,#365);
#233=LINE('',#366,#367);
#234=SURFACE_STYLE_FILL_AREA(#368);
#235=ORIENTED_EDGE('',*,*,#369,.F.);
#236=ORIENTED_EDGE('',*,*,#370,.T.);
#237=ORIENTED_EDGE('',*,*,#371,.T.);
#238=CARTESIAN_POINT('',(1.95591536273556E-15,0.0,-31.9425219434263));
#239=DIRECTION('',(1.0,0.0,6.12323399573677E-17));
#240=DIRECTION('',(6.12323399573677E-17,0.0,-1.0));
#241=SURFACE_STYLE_FILL_AREA(#372);
#242=ORIENTED_EDGE('',*,*,#373,.F.);
#243=ORIENTED_EDGE('',*,*,#374,.T.);
#244=ORIENTED_EDGE('',*,*,#375,.F.);
#245=ORIENTED_EDGE('',*,*,#376,.F.);
#246=ORIENTED_EDGE('',*,*,#371,.F.);
#247=CARTESIAN_POINT('',(1.87631332079098E-15,0.0,-30.6425219434263));
#248=DIRECTION('',(6.12323399573677E-17,0.0,-1.0));
#249=DIRECTION('',(0.0,1.0,0.0));
#250=SURFACE_STYLE_FILL_AREA(#377);
#251=ORIENTED_EDGE('',*,*,#374,.F.);
#252=ORIENTED_EDGE('',*,*,#378,.F.);
#253=CARTESIAN_POINT('',(1.7967112788464E-15,1.0,-29.3425219434263));
#254=DIRECTION('',(-6.12323399573677E-17,0.0,1.0));
#255=DIRECTION('',(0.0,-1.0,0.0));
#256=SURFACE_STYLE_FILL_AREA(#379);
#257=ORIENTED_EDGE('',*,*,#373,.T.);
#258=ORIENTED_EDGE('',*,*,#370,.F.);
#259=ORIENTED_EDGE('',*,*,#380,.F.);
#260=ORIENTED_EDGE('',*,*,#375,.T.);
#261=ORIENTED_EDGE('',*,*,#378,.T.);
#262=CARTESIAN_POINT('',(1.87631332079098E-15,0.0,-30.6425219434263));
#263=DIRECTION('',(6.12323399573677E-17,0.0,-1.0));
#264=DIRECTION('',(0.0,1.0,0.0));
#265=SURFACE_STYLE_FILL_AREA(#381);
#266=ORIENTED_EDGE('',*,*,#369,.T.);
#267=ORIENTED_EDGE('',*,*,#376,.T.);
#268=ORIENTED_EDGE('',*,*,#380,.T.);
#269=CARTESIAN_POINT('',(1.95591536273556E-15,0.0,-31.9425219434263));
#270=DIRECTION('',(1.0,0.0,6.12323399573677E-17));
#271=DIRECTION('',(6.12323399573677E-17,0.0,-1.0));
#272=SURFACE_STYLE_FILL_AREA(#382);
#273=ORIENTED_EDGE('',*,*,#383,.F.);
#274=ORIENTED_EDGE('',*,*,#384,.T.);
#275=ORIENTED_EDGE('',*,*,#385,.F.);
#276=ORIENTED_EDGE('',*,*,#386,.F.);
#277=CARTESIAN_POINT('',(1.69261630091887E-15,0.0,-27.6425219434263));
#278=DIRECTION('',(6.12323399573677E-17,0.0,-1.0));
#279=DIRECTION('',(0.0,1.0,0.0));
#280=SURFACE_STYLE_FILL_AREA(#387);
#281=ORIENTED_EDGE('',*,*,#388,.F.);
#282=ORIENTED_EDGE('',*,*,#389,.T.);
#283=ORIENTED_EDGE('',*,*,#390,.F.);
#284=ORIENTED_EDGE('',*,*,#384,.F.);
#285=CARTESIAN_POINT('',(9.14965583460305E-16,0.0,-14.9425219434263));
#286=DIRECTION('',(-6.12323399573677E-17,-0.0,1.0));
#287=DIRECTION('',(0.0,1.0,0.0));
#288=SURFACE_STYLE_FILL_AREA(#391);
#289=ORIENTED_EDGE('',*,*,#392,.F.);
#290=ORIENTED_EDGE('',*,*,#393,.T.);
#291=ORIENTED_EDGE('',*,*,#394,.F.);
#292=ORIENTED_EDGE('',*,*,#389,.F.);
#293=CARTESIAN_POINT('',(1.2070492196463E-16,0.0,-1.97126097171314));
#294=DIRECTION('',(-6.12323399573677E-17,-0.0,1.0));
#295=DIRECTION('',(0.0,1.0,0.0));
#296=SURFACE_STYLE_FILL_AREA(#395);
#297=ORIENTED_EDGE('',*,*,#396,.F.);
#298=ORIENTED_EDGE('',*,*,#397,.T.);
#299=ORIENTED_EDGE('',*,*,#398,.F.);
#300=ORIENTED_EDGE('',*,*,#393,.F.);
#301=CARTESIAN_POINT('',(-1.2417146420868E-15,0.0,20.2787390282869));
#302=DIRECTION('',(6.12323399573676E-17,0.0,-1.0));
#303=DIRECTION('',(0.0,1.0,0.0));
#304=SURFACE_STYLE_FILL_AREA(#399);
#305=ORIENTED_EDGE('',*,*,#400,.F.);
#306=ORIENTED_EDGE('',*,*,#401,.T.);
#307=ORIENTED_EDGE('',*,*,#402,.F.);
#308=ORIENTED_EDGE('',*,*,#397,.F.);
#309=CARTESIAN_POINT('',(-2.49873736916294E-15,0.0,40.8074780565737));
#310=DIRECTION('',(6.12323399573677E-17,-0.0,-1.0));
#311=DIRECTION('',(0.0,1.0,0.0));
#312=SURFACE_STYLE_FILL_AREA(#403);
#313=ORIENTED_EDGE('',*,*,#401,.F.);
#314=ORIENTED_EDGE('',*,*,#404,.F.);
#315=CARTESIAN_POINT('',(-2.51404545415228E-15,1.25,41.0574780565737));
#316=DIRECTION('',(-6.12323399573677E-17,0.0,1.0));
#317=DIRECTION('',(0.0,-1.0,0.0));
#318=SURFACE_STYLE_FILL_AREA(#405);
#319=ORIENTED_EDGE('',*,*,#400,.T.);
#320=ORIENTED_EDGE('',*,*,#406,.F.);
#321=ORIENTED_EDGE('',*,*,#402,.T.);
#322=ORIENTED_EDGE('',*,*,#404,.T.);
#323=CARTESIAN_POINT('',(-2.49873736916294E-15,0.0,40.8074780565737));
#324=DIRECTION('',(6.12323399573677E-17,-0.0,-1.0));
#325=DIRECTION('',(0.0,1.0,0.0));
#326=SURFACE_STYLE_FILL_AREA(#407);
#327=ORIENTED_EDGE('',*,*,#396,.T.);
#328=ORIENTED_EDGE('',*,*,#408,.F.);
#329=ORIENTED_EDGE('',*,*,#398,.T.);
#330=ORIENTED_EDGE('',*,*,#406,.T.);
#331=CARTESIAN_POINT('',(-1.2417146420868E-15,0.0,20.2787390282869));
#332=DIRECTION('',(6.12323399573676E-17,0.0,-1.0));
#333=DIRECTION('',(0.0,1.0,0.0));
#334=SURFACE_STYLE_FILL_AREA(#409);
#335=ORIENTED_EDGE('',*,*,#392,.T.);
#336=ORIENTED_EDGE('',*,*,#410,.F.);
#337=ORIENTED_EDGE('',*,*,#394,.T.);
#338=ORIENTED_EDGE('',*,*,#408,.T.);
#339=CARTESIAN_POINT('',(1.2070492196463E-16,0.0,-1.97126097171314));
#340=DIRECTION('',(-6.12323399573677E-17,-0.0,1.0));
#341=DIRECTION('',(0.0,1.0,0.0));
#342=SURFACE_STYLE_FILL_AREA(#411);
#343=ORIENTED_EDGE('',*,*,#388,.T.);
#344=ORIENTED_EDGE('',*,*,#412,.F.);
#345=ORIENTED_EDGE('',*,*,#390,.T.);
#346=ORIENTED_EDGE('',*,*,#410,.T.);
#347=CARTESIAN_POINT('',(9.14965583460305E-16,0.0,-14.9425219434263));
#348=DIRECTION('',(-6.12323399573677E-17,-0.0,1.0));
#349=DIRECTION('',(0.0,1.0,0.0));
#350=SURFACE_STYLE_FILL_AREA(#413);
#351=ORIENTED_EDGE('',*,*,#383,.T.);
#352=ORIENTED_EDGE('',*,*,#414,.F.);
#353=ORIENTED_EDGE('',*,*,#385,.T.);
#354=ORIENTED_EDGE('',*,*,#412,.T.);
#355=CARTESIAN_POINT('',(1.69261630091887E-15,0.0,-27.6425219434263));
#356=DIRECTION('',(6.12323399573677E-17,0.0,-1.0));
#357=DIRECTION('',(0.0,1.0,0.0));
#358=SURFACE_STYLE_FILL_AREA(#415);
#359=ORIENTED_EDGE('',*,*,#386,.T.);
#360=ORIENTED_EDGE('',*,*,#414,.T.);
#361=CARTESIAN_POINT('',(1.7967112788464E-15,0.985,-29.3425219434263));
#362=DIRECTION('',(6.12323399573677E-17,0.0,-1.0));
#363=DIRECTION('',(0.0,1.0,0.0));
#364=CARTESIAN_POINT('',(0.0,3.0,0.0));
#365=VECTOR('',#416,1.0);
#366=CARTESIAN_POINT('',(0.0,-3.0,0.0));
#367=VECTOR('',#417,1.0);
#368=FILL_AREA_STYLE('',(#418));
#369=EDGE_CURVE('',#419,#420,#421,.T.);
#370=EDGE_CURVE('',#419,#422,#423,.T.);
#371=EDGE_CURVE('',#422,#420,#424,.T.);
#372=FILL_AREA_STYLE('',(#425));
#373=EDGE_CURVE('',#426,#422,#427,.T.);
#374=EDGE_CURVE('',#426,#428,#429,.T.);
#375=EDGE_CURVE('',#430,#428,#431,.T.);
#376=EDGE_CURVE('',#420,#430,#432,.T.);
#377=FILL_AREA_STYLE('',(#433));
#378=EDGE_CURVE('',#428,#426,#434,.T.);
#379=FILL_AREA_STYLE('',(#435));
#380=EDGE_CURVE('',#430,#419,#436,.T.);
#381=FILL_AREA_STYLE('',(#437));
#382=FILL_AREA_STYLE('',(#438));
#383=EDGE_CURVE('',#439,#440,#441,.T.);
#384=EDGE_CURVE('',#439,#442,#443,.T.);
#385=EDGE_CURVE('',#444,#442,#445,.T.);
#386=EDGE_CURVE('',#440,#444,#446,.T.);
#387=FILL_AREA_STYLE('',(#447));
#388=EDGE_CURVE('',#448,#439,#449,.T.);
#389=EDGE_CURVE('',#448,#450,#451,.T.);
#390=EDGE_CURVE('',#442,#450,#452,.T.);
#391=FILL_AREA_STYLE('',(#453));
#392=EDGE_CURVE('',#454,#448,#455,.T.);
#393=EDGE_CURVE('',#454,#456,#457,.T.);
#394=EDGE_CURVE('',#450,#456,#458,.T.);
#395=FILL_AREA_STYLE('',(#459));
#396=EDGE_CURVE('',#460,#454,#461,.T.);
#397=EDGE_CURVE('',#460,#462,#463,.T.);
#398=EDGE_CURVE('',#456,#462,#464,.T.);
#399=FILL_AREA_STYLE('',(#465));
#400=EDGE_CURVE('',#466,#460,#467,.T.);
#401=EDGE_CURVE('',#466,#468,#469,.T.);
#402=EDGE_CURVE('',#462,#468,#470,.T.);
#403=FILL_AREA_STYLE('',(#471));
#404=EDGE_CURVE('',#468,#466,#472,.T.);
#405=FILL_AREA_STYLE('',(#473));
#406=EDGE_CURVE('',#462,#460,#474,.T.);
#407=FILL_AREA_STYLE('',(#475));
#408=EDGE_CURVE('',#456,#454,#476,.T.);
#409=FILL_AREA_STYLE('',(#477));
#410=EDGE_CURVE('',#450,#448,#478,.T.);
#411=FILL_AREA_STYLE('',(#479));
#412=EDGE_CURVE('',#442,#439,#480,.T.);
#413=FILL_AREA_STYLE('',(#481));
#414=EDGE_CURVE('',#444,#440,#482,.T.);
#415=FILL_AREA_STYLE('',(#483));
#416=DIRECTION('',(0.0,-1.0,0.0));
#417=DIRECTION('',(0.0,1.0,0.0));
#418=FILL_AREA_STYLE_COLOUR('',#484);
#419=VERTEX_POINT('',#485);
#420=VERTEX_POINT('',#486);
#421=CIRCLE('',#487,2.0);
#422=VERTEX_POINT('',#488);
#423=CIRCLE('',#489,2.0);
#424=CIRCLE('',#490,2.0);
#425=FILL_AREA_STYLE_COLOUR('',#491);
#426=VERTEX_POINT('',#492);
#427=LINE('',#493,#494);
#428=VERTEX_POINT('',#495);
#429=CIRCLE('',#496,2.0);
#430=VERTEX_POINT('',#497);
#431=LINE('',#498,#499);
#432=CIRCLE('',#500,2.0);
#433=FILL_AREA_STYLE_COLOUR('',#501);
#434=CIRCLE('',#502,2.0);
#435=FILL_AREA_STYLE_COLOUR('',#503);
#436=CIRCLE('',#504,2.0);
#437=FILL_AREA_STYLE_COLOUR('',#505);
#438=FILL_AREA_STYLE_COLOUR('',#506);
#439=VERTEX_POINT('',#507);
#440=VERTEX_POINT('',#508);
#441=LINE('',#509,#510);
#442=VERTEX_POINT('',#511);
#443=CIRCLE('',#512,1.97);
#444=VERTEX_POINT('',#513);
#445=LINE('',#514,#515);
#446=CIRCLE('',#516,1.97);
#447=FILL_AREA_STYLE_COLOUR('',#517);
#448=VERTEX_POINT('',#518);
#449=LINE('',#519,#520);
#450=VERTEX_POINT('',#521);
#451=CIRCLE('',#522,2.16199109139669);
#452=LINE('',#523,#524);
#453=FILL_AREA_STYLE_COLOUR('',#525);
#454=VERTEX_POINT('',#526);
#455=LINE('',#527,#528);
#456=VERTEX_POINT('',#529);
#457=CIRCLE('',#530,3.0);
#458=LINE('',#531,#532);
#459=FILL_AREA_STYLE_COLOUR('',#533);
#460=VERTEX_POINT('',#534);
#461=LINE('',#535,#536);
#462=VERTEX_POINT('',#537);
#463=CIRCLE('',#538,3.0);
#464=LINE('',#539,#540);
#465=FILL_AREA_STYLE_COLOUR('',#541);
#466=VERTEX_POINT('',#542);
#467=LINE('',#543,#544);
#468=VERTEX_POINT('',#545);
#469=CIRCLE('',#546,2.5);
#470=LINE('',#547,#548);
#471=FILL_AREA_STYLE_COLOUR('',#549);
#472=CIRCLE('',#550,2.5);
#473=FILL_AREA_STYLE_COLOUR('',#551);
#474=CIRCLE('',#552,3.0);
#475=FILL_AREA_STYLE_COLOUR('',#553);
#476=CIRCLE('',#554,3.0);
#477=FILL_AREA_STYLE_COLOUR('',#555);
#478=CIRCLE('',#556,2.16199109139669);
#479=FILL_AREA_STYLE_COLOUR('',#557);
#480=CIRCLE('',#558,1.97);
#481=FILL_AREA_STYLE_COLOUR('',#559);
#482=CIRCLE('',#560,1.97);
#483=FILL_AREA_STYLE_COLOUR('',#561);
#484=COLOUR_RGB('',0.800000011920929,0.800000011920929,0.800000011920929);
#485=CARTESIAN_POINT('',(-2.0,2.56969669301596E-49,-31.9425219434263));
#486=CARTESIAN_POINT('',(2.0,2.56969669301596E-49,-31.9425219434263));
#487=AXIS2_PLACEMENT_3D('',#562,#563,#564);
#488=CARTESIAN_POINT('',(1.95591536273556E-15,2.0,-31.9425219434263));
#489=AXIS2_PLACEMENT_3D('',#565,#566,#567);
#490=AXIS2_PLACEMENT_3D('',#568,#569,#570);
#491=COLOUR_RGB('',0.800000011920929,0.800000011920929,0.800000011920929);
#492=CARTESIAN_POINT('',(1.7967112788464E-15,2.0,-29.3425219434263));
#493=CARTESIAN_POINT('',(1.63138396096151E-15,2.0,-30.6425219434263));
#494=VECTOR('',#571,1.0);
#495=CARTESIAN_POINT('',(2.04164063867587E-15,-2.0,-29.3425219434263));
#496=AXIS2_PLACEMENT_3D('',#572,#573,#574);
#497=CARTESIAN_POINT('',(2.20084472256503E-15,-2.0,-31.9425219434263));
#498=CARTESIAN_POINT('',(2.12124268062045E-15,-2.0,-30.6425219434263));
#499=VECTOR('',#575,1.0);
#500=AXIS2_PLACEMENT_3D('',#576,#577,#578);
#501=COLOUR_RGB('',0.800000011920929,0.800000011920929,0.800000011920929);
#502=AXIS2_PLACEMENT_3D('',#579,#580,#581);
#503=COLOUR_RGB('',0.800000011920929,0.800000011920929,0.800000011920929);
#504=AXIS2_PLACEMENT_3D('',#582,#583,#584);
#505=COLOUR_RGB('',0.800000011920929,0.800000011920929,0.800000011920929);
#506=COLOUR_RGB('',0.498039215803146,0.498039215803146,0.498039215803146);
#507=CARTESIAN_POINT('',(1.58852132299135E-15,1.97,-25.9425219434263));
#508=CARTESIAN_POINT('',(1.7967112788464E-15,1.97,-29.3425219434263));
#509=CARTESIAN_POINT('',(1.45136088148685E-15,1.97,-27.6425219434263));
#510=VECTOR('',#585,1.0);
#511=CARTESIAN_POINT('',(1.82977674242338E-15,-1.97,-25.9425219434263));
#512=AXIS2_PLACEMENT_3D('',#586,#587,#588);
#513=CARTESIAN_POINT('',(2.03796669827843E-15,-1.97,-29.3425219434263));
#514=CARTESIAN_POINT('',(1.9338717203509E-15,-1.97,-27.6425219434263));
#515=VECTOR('',#589,1.0);
#516=AXIS2_PLACEMENT_3D('',#590,#591,#592);
#517=COLOUR_RGB('',0.498039215803146,0.498039215803146,0.498039215803146);
#518=CARTESIAN_POINT('',(2.41409843929261E-16,2.16199109139669,-3.94252194342629));
#519=CARTESIAN_POINT('',(6.61954100251088E-16,2.06599554569835,-14.9425219434263));
#520=VECTOR('',#593,1.0);
#521=CARTESIAN_POINT('',(5.06177390915666E-16,-2.16199109139669,-3.94252194342629));
#522=AXIS2_PLACEMENT_3D('',#594,#595,#596);
#523=CARTESIAN_POINT('',(1.16797706666952E-15,-2.06599554569835,-14.9425219434263));
#524=VECTOR('',#597,1.0);
#525=COLOUR_RGB('',0.498039215803146,0.498039215803146,0.498039215803146);
#526=CARTESIAN_POINT('',(0.0,3.0,0.0));
#527=CARTESIAN_POINT('',(-1.95375871400676E-16,2.58099554569835,-1.97126097171314));
#528=VECTOR('',#598,1.0);
#529=CARTESIAN_POINT('',(3.67394039744206E-16,-3.0,2.24963967399279E-32));
#530=AXIS2_PLACEMENT_3D('',#599,#600,#601);
#531=CARTESIAN_POINT('',(4.36785715329936E-16,-2.58099554569835,-1.97126097171314));
#532=VECTOR('',#602,1.0);
#533=COLOUR_RGB('',0.498039215803146,0.498039215803146,0.498039215803146);
#534=CARTESIAN_POINT('',(-2.4834292841736E-15,3.0,40.5574780565737));
#535=CARTESIAN_POINT('',(-1.60910868183101E-15,3.0,20.2787390282869));
#536=VECTOR('',#603,1.0);
#537=CARTESIAN_POINT('',(-2.11603524442939E-15,-3.0,40.5574780565737));
#538=AXIS2_PLACEMENT_3D('',#604,#605,#606);
#539=CARTESIAN_POINT('',(-8.74320602342595E-16,-3.0,20.2787390282869));
#540=VECTOR('',#607,1.0);
#541=COLOUR_RGB('',0.498039215803146,0.498039215803146,0.498039215803146);
#542=CARTESIAN_POINT('',(-2.51404545415228E-15,2.5,41.0574780565737));
#543=CARTESIAN_POINT('',(-2.83551523892846E-15,2.75,40.8074780565737));
#544=VECTOR('',#608,1.0);
#545=CARTESIAN_POINT('',(-2.20788375436545E-15,-2.5,41.0574780565737));
#546=AXIS2_PLACEMENT_3D('',#609,#610,#611);
#547=CARTESIAN_POINT('',(-2.16195949939742E-15,-2.75,40.8074780565737));
#548=VECTOR('',#612,1.0);
#549=COLOUR_RGB('',0.498039215803146,0.498039215803146,0.498039215803146);
#550=AXIS2_PLACEMENT_3D('',#613,#614,#615);
#551=COLOUR_RGB('',0.498039215803146,0.498039215803146,0.498039215803146);
#552=AXIS2_PLACEMENT_3D('',#616,#617,#618);
#553=COLOUR_RGB('',0.498039215803146,0.498039215803146,0.498039215803146);
#554=AXIS2_PLACEMENT_3D('',#619,#620,#621);
#555=COLOUR_RGB('',0.498039215803146,0.498039215803146,0.498039215803146);
#556=AXIS2_PLACEMENT_3D('',#622,#623,#624);
#557=COLOUR_RGB('',0.498039215803146,0.498039215803146,0.498039215803146);
#558=AXIS2_PLACEMENT_3D('',#625,#626,#627);
#559=COLOUR_RGB('',0.498039215803146,0.498039215803146,0.498039215803146);
#560=AXIS2_PLACEMENT_3D('',#628,#629,#630);
#561=COLOUR_RGB('',0.498039215803146,0.498039215803146,0.498039215803146);
#562=CARTESIAN_POINT('',(1.95591536273556E-15,0.0,-31.9425219434263));
#563=DIRECTION('',(-7.49879891330929E-33,-1.0,1.22464679914735E-16));
#564=DIRECTION('',(0.0,1.22464679914735E-16,1.0));
#565=CARTESIAN_POINT('',(1.95591536273556E-15,0.0,-31.9425219434263));
#566=DIRECTION('',(6.12323399573677E-17,0.0,-1.0));
#567=DIRECTION('',(0.0,1.0,0.0));
#568=CARTESIAN_POINT('',(1.95591536273556E-15,0.0,-31.9425219434263));
#569=DIRECTION('',(6.12323399573677E-17,0.0,-1.0));
#570=DIRECTION('',(0.0,1.0,0.0));
#571=DIRECTION('',(6.12323399573677E-17,0.0,-1.0));
#572=CARTESIAN_POINT('',(1.7967112788464E-15,0.0,-29.3425219434263));
#573=DIRECTION('',(6.12323399573677E-17,0.0,-1.0));
#574=DIRECTION('',(0.0,1.0,0.0));
#575=DIRECTION('',(-6.12323399573677E-17,-0.0,1.0));
#576=CARTESIAN_POINT('',(1.95591536273556E-15,0.0,-31.9425219434263));
#577=DIRECTION('',(6.12323399573677E-17,0.0,-1.0));
#578=DIRECTION('',(0.0,1.0,0.0));
#579=CARTESIAN_POINT('',(1.7967112788464E-15,0.0,-29.3425219434263));
#580=DIRECTION('',(6.12323399573677E-17,0.0,-1.0));
#581=DIRECTION('',(0.0,1.0,0.0));
#582=CARTESIAN_POINT('',(1.95591536273556E-15,0.0,-31.9425219434263));
#583=DIRECTION('',(6.12323399573677E-17,0.0,-1.0));
#584=DIRECTION('',(0.0,1.0,0.0));
#585=DIRECTION('',(6.12323399573676E-17,0.0,-1.0));
#586=CARTESIAN_POINT('',(1.58852132299135E-15,0.0,-25.9425219434263));
#587=DIRECTION('',(6.12323399573677E-17,0.0,-1.0));
#588=DIRECTION('',(0.0,1.0,0.0));
#589=DIRECTION('',(-6.12323399573676E-17,-0.0,1.0));
#590=CARTESIAN_POINT('',(1.7967112788464E-15,0.0,-29.3425219434263));
#591=DIRECTION('',(6.12323399573677E-17,0.0,-1.0));
#592=DIRECTION('',(0.0,1.0,0.0));
#593=DIRECTION('',(6.22987007940614E-17,-0.00872653549837393,-0.999961923064171));
#594=CARTESIAN_POINT('',(2.41409843929261E-16,0.0,-3.94252194342629));
#595=DIRECTION('',(6.12323399573676E-17,0.0,-1.0));
#596=DIRECTION('',(0.0,1.0,0.0));
#597=DIRECTION('',(-6.01613160409156E-17,-0.00872653549837393,0.999961923064171));
#598=DIRECTION('',(8.53561050831443E-17,-0.207911690817759,-0.978147600733806));
#599=CARTESIAN_POINT('',(0.0,0.0,0.0));
#600=DIRECTION('',(6.12323399573676E-17,0.0,-1.0));
#601=DIRECTION('',(0.0,1.0,0.0));
#602=DIRECTION('',(-3.44324277500876E-17,-0.207911690817759,0.978147600733806));
#603=DIRECTION('',(6.12323399573676E-17,0.0,-1.0));
#604=CARTESIAN_POINT('',(-2.4834292841736E-15,0.0,40.5574780565737));
#605=DIRECTION('',(6.12323399573676E-17,0.0,-1.0));
#606=DIRECTION('',(0.0,1.0,0.0));
#607=DIRECTION('',(-6.12323399573676E-17,-0.0,1.0));
#608=DIRECTION('',(-4.32978028117747E-17,0.707106781186548,-0.707106781186548));
#609=CARTESIAN_POINT('',(-2.51404545415228E-15,0.0,41.0574780565737));
#610=DIRECTION('',(6.12323399573677E-17,0.0,-1.0));
#611=DIRECTION('',(0.0,1.0,0.0));
#612=DIRECTION('',(-1.29893408435324E-16,0.707106781186548,0.707106781186548));
#613=CARTESIAN_POINT('',(-2.51404545415228E-15,0.0,41.0574780565737));
#614=DIRECTION('',(6.12323399573677E-17,0.0,-1.0));
#615=DIRECTION('',(0.0,1.0,0.0));
#616=CARTESIAN_POINT('',(-2.4834292841736E-15,0.0,40.5574780565737));
#617=DIRECTION('',(6.12323399573676E-17,0.0,-1.0));
#618=DIRECTION('',(0.0,1.0,0.0));
#619=CARTESIAN_POINT('',(0.0,0.0,0.0));
#620=DIRECTION('',(6.12323399573676E-17,0.0,-1.0));
#621=DIRECTION('',(0.0,1.0,0.0));
#622=CARTESIAN_POINT('',(2.41409843929261E-16,0.0,-3.94252194342629));
#623=DIRECTION('',(6.12323399573676E-17,0.0,-1.0));
#624=DIRECTION('',(0.0,1.0,0.0));
#625=CARTESIAN_POINT('',(1.58852132299135E-15,0.0,-25.9425219434263));
#626=DIRECTION('',(6.12323399573677E-17,0.0,-1.0));
#627=DIRECTION('',(0.0,1.0,0.0));
#628=CARTESIAN_POINT('',(1.7967112788464E-15,0.0,-29.3425219434263));
#629=DIRECTION('',(6.12323399573677E-17,0.0,-1.0));
#630=DIRECTION('',(0.0,1.0,0.0));
#631=DIRECTION('',(0.0,0.0,1.0));
#632=DIRECTION('',(1.0,0.0,0.0));
#633=CARTESIAN_POINT('',(0.0,0.0,41.057478));
#634=AXIS2_PLACEMENT_3D('PCS', #633,#631,#632);
#635=CARTESIAN_POINT('',(0.0,0.0,0.000000));
#636=AXIS2_PLACEMENT_3D('MCS', #635,#631,#632);
#637=CARTESIAN_POINT('',(0.0,0.0,-33.942522));
#638=AXIS2_PLACEMENT_3D('CIP', #637,#631,#632);
ENDSEC;
END-ISO-10303-21;
