ISO-10303-21;
HEADER;
FILE_DESCRIPTION(('STEP AP214'),'1');
FILE_NAME('607700257-000-00-E43.stp','2022-04-04T08:01:34',(' '),(' '),'Spatial InterOp 3D',' ',' ');
FILE_SCHEMA(('AUTOMOTIVE_DESIGN { 1 0 10303 214 1 1 1 1 }'));
ENDSEC;
DATA;
#1=MECHANICAL_DESIGN_GEOMETRIC_PRESENTATION_REPRESENTATION(' ',(#12,#13,#14,#15,#16,#17,#18,#19,#20,#21,#22,#23,#24,#25,#26),#8);
#2=PRODUCT_DEFINITION_CONTEXT('',#27,'design');
#3=APPLICATION_PROTOCOL_DEFINITION('INTERNATIONAL STANDARD','automotive_design',1994,#27);
#4=PRODUCT_CATEGORY_RELATIONSHIP('NONE','NONE',#28,#29);
#5=SHAPE_DEFINITION_REPRESENTATION(#30,#31);
#6=SHAPE_DEFINITION_REPRESENTATION(#30,#32);
#7=SHAPE_DEFINITION_REPRESENTATION(#30,#33);
#8= (GEOMETRIC_REPRESENTATION_CONTEXT(3)GLOBAL_UNCERTAINTY_ASSIGNED_CONTEXT((#36))GLOBAL_UNIT_ASSIGNED_CONTEXT((#38,#39,#40))REPRESENTATION_CONTEXT('NONE','WORKSPACE'));
#12=STYLED_ITEM('',(#42),#43);
#13=STYLED_ITEM('',(#44),#45);
#14=STYLED_ITEM('',(#46),#47);
#15=STYLED_ITEM('',(#48),#49);
#16=STYLED_ITEM('',(#50),#51);
#17=STYLED_ITEM('',(#52),#53);
#18=STYLED_ITEM('',(#54),#55);
#19=STYLED_ITEM('',(#56),#57);
#20=STYLED_ITEM('',(#58),#59);
#21=STYLED_ITEM('',(#60),#61);
#22=STYLED_ITEM('',(#62),#63);
#23=STYLED_ITEM('',(#64),#65);
#24=STYLED_ITEM('',(#66),#67);
#25=STYLED_ITEM('',(#68),#69);
#26=STYLED_ITEM('',(#70),#71);
#27=APPLICATION_CONTEXT(' ');
#28=PRODUCT_CATEGORY('part','NONE');
#29=PRODUCT_RELATED_PRODUCT_CATEGORY('detail',' ',(#72));
#30=PRODUCT_DEFINITION_SHAPE('NONE','NONE',#73);
#31=ADVANCED_BREP_SHAPE_REPRESENTATION('1',(#74,#75),#8);
#32=ADVANCED_BREP_SHAPE_REPRESENTATION('2',(#76,#77),#8);
#33=GEOMETRICALLY_BOUNDED_SURFACE_SHAPE_REPRESENTATION('3',(#78,#79),#8);
#36=UNCERTAINTY_MEASURE_WITH_UNIT(LENGTH_MEASURE(1.0E-06),#38,'','');
#38= (CONVERSION_BASED_UNIT('MILLIMETRE',#82)LENGTH_UNIT()NAMED_UNIT(#85));
#39= (NAMED_UNIT(#87)PLANE_ANGLE_UNIT()SI_UNIT($,.RADIAN.));
#40= (NAMED_UNIT(#87)SOLID_ANGLE_UNIT()SI_UNIT($,.STERADIAN.));
#42=PRESENTATION_STYLE_ASSIGNMENT((#93));
#43=COMPOSITE_CURVE('',(#94),.U.);
#44=PRESENTATION_STYLE_ASSIGNMENT((#95));
#45=COMPOSITE_CURVE('',(#96,#97,#98,#99,#100,#101,#102),.U.);
#46=PRESENTATION_STYLE_ASSIGNMENT((#103));
#47=ADVANCED_FACE('',(#104),#105,.T.);
#48=PRESENTATION_STYLE_ASSIGNMENT((#106));
#49=ADVANCED_FACE('',(#107),#108,.T.);
#50=PRESENTATION_STYLE_ASSIGNMENT((#109));
#51=ADVANCED_FACE('',(#110),#111,.T.);
#52=PRESENTATION_STYLE_ASSIGNMENT((#112));
#53=ADVANCED_FACE('',(#113),#114,.T.);
#54=PRESENTATION_STYLE_ASSIGNMENT((#115));
#55=ADVANCED_FACE('',(#116),#117,.T.);
#56=PRESENTATION_STYLE_ASSIGNMENT((#118));
#57=ADVANCED_FACE('',(#119),#120,.T.);
#58=PRESENTATION_STYLE_ASSIGNMENT((#121));
#59=COMPOSITE_CURVE('',(#122,#123,#124,#125,#126,#127),.U.);
#60=PRESENTATION_STYLE_ASSIGNMENT((#128));
#61=ADVANCED_FACE('',(#129),#130,.T.);
#62=PRESENTATION_STYLE_ASSIGNMENT((#131));
#63=ADVANCED_FACE('',(#132),#133,.T.);
#64=PRESENTATION_STYLE_ASSIGNMENT((#134));
#65=ADVANCED_FACE('',(#135),#136,.T.);
#66=PRESENTATION_STYLE_ASSIGNMENT((#137));
#67=ADVANCED_FACE('',(#138),#139,.T.);
#68=PRESENTATION_STYLE_ASSIGNMENT((#140));
#69=ADVANCED_FACE('',(#141),#142,.T.);
#70=PRESENTATION_STYLE_ASSIGNMENT((#143));
#71=ADVANCED_FACE('',(#144),#145,.T.);
#72=PRODUCT('1','','PART--DESC',(#146));
#73=PRODUCT_DEFINITION('','NONE',#147,#2);
#74=MANIFOLD_SOLID_BREP('1',#148);
#75=AXIS2_PLACEMENT_3D('',#149,#150,#151);
#76=MANIFOLD_SOLID_BREP('2',#152);
#77=AXIS2_PLACEMENT_3D('',#153,#154,#155);
#78=GEOMETRIC_SET('3',(#43,#45,#59));
#79=AXIS2_PLACEMENT_3D('',#156,#157,#158);
#82=LENGTH_MEASURE_WITH_UNIT(LENGTH_MEASURE(1.0),#159);
#85=DIMENSIONAL_EXPONENTS(1.0,0.0,0.0,0.0,0.0,0.0,0.0);
#87=DIMENSIONAL_EXPONENTS(0.0,0.0,0.0,0.0,0.0,0.0,0.0);
#93=CURVE_STYLE('',#160,POSITIVE_LENGTH_MEASURE(1.0E-06),#161);
#94=COMPOSITE_CURVE_SEGMENT(.CONTINUOUS.,.T.,#162);
#95=CURVE_STYLE('',#163,POSITIVE_LENGTH_MEASURE(1.0E-06),#164);
#96=COMPOSITE_CURVE_SEGMENT(.CONTINUOUS.,.T.,#165);
#97=COMPOSITE_CURVE_SEGMENT(.CONTINUOUS.,.T.,#166);
#98=COMPOSITE_CURVE_SEGMENT(.CONTINUOUS.,.T.,#167);
#99=COMPOSITE_CURVE_SEGMENT(.CONTINUOUS.,.T.,#168);
#100=COMPOSITE_CURVE_SEGMENT(.CONTINUOUS.,.T.,#169);
#101=COMPOSITE_CURVE_SEGMENT(.CONTINUOUS.,.T.,#170);
#102=COMPOSITE_CURVE_SEGMENT(.CONTINUOUS.,.T.,#171);
#103=SURFACE_STYLE_USAGE(.BOTH.,#172);
#104=FACE_OUTER_BOUND('',#173,.T.);
#105=CYLINDRICAL_SURFACE('',#174,4.0);
#106=SURFACE_STYLE_USAGE(.BOTH.,#175);
#107=FACE_OUTER_BOUND('',#176,.T.);
#108=CONICAL_SURFACE('',#177,3.59999999999999,0.785398163397448);
#109=SURFACE_STYLE_USAGE(.BOTH.,#178);
#110=FACE_OUTER_BOUND('',#179,.T.);
#111=PLANE('',#180);
#112=SURFACE_STYLE_USAGE(.BOTH.,#181);
#113=FACE_OUTER_BOUND('',#182,.T.);
#114=PLANE('',#183);
#115=SURFACE_STYLE_USAGE(.BOTH.,#184);
#116=FACE_OUTER_BOUND('',#185,.T.);
#117=CONICAL_SURFACE('',#186,3.59999999999999,0.785398163397448);
#118=SURFACE_STYLE_USAGE(.BOTH.,#187);
#119=FACE_OUTER_BOUND('',#188,.T.);
#120=CYLINDRICAL_SURFACE('',#189,4.0);
#121=CURVE_STYLE('',#190,POSITIVE_LENGTH_MEASURE(1.0E-06),#191);
#122=COMPOSITE_CURVE_SEGMENT(.CONTINUOUS.,.T.,#192);
#123=COMPOSITE_CURVE_SEGMENT(.CONTINUOUS.,.T.,#193);
#124=COMPOSITE_CURVE_SEGMENT(.CONTINUOUS.,.T.,#194);
#125=COMPOSITE_CURVE_SEGMENT(.CONTINUOUS.,.T.,#195);
#126=COMPOSITE_CURVE_SEGMENT(.CONTINUOUS.,.T.,#196);
#127=COMPOSITE_CURVE_SEGMENT(.CONTINUOUS.,.T.,#197);
#128=SURFACE_STYLE_USAGE(.BOTH.,#198);
#129=FACE_OUTER_BOUND('',#199,.T.);
#130=CONICAL_SURFACE('',#200,3.91999999999996,0.785398163397804);
#131=SURFACE_STYLE_USAGE(.BOTH.,#201);
#132=FACE_OUTER_BOUND('',#202,.T.);
#133=CYLINDRICAL_SURFACE('',#203,4.00000000000001);
#134=SURFACE_STYLE_USAGE(.BOTH.,#204);
#135=FACE_OUTER_BOUND('',#205,.T.);
#136=PLANE('',#206);
#137=SURFACE_STYLE_USAGE(.BOTH.,#207);
#138=FACE_OUTER_BOUND('',#208,.T.);
#139=CYLINDRICAL_SURFACE('',#209,4.00000000000001);
#140=SURFACE_STYLE_USAGE(.BOTH.,#210);
#141=FACE_OUTER_BOUND('',#211,.T.);
#142=CONICAL_SURFACE('',#212,3.91999999999996,0.785398163397804);
#143=SURFACE_STYLE_USAGE(.BOTH.,#213);
#144=FACE_OUTER_BOUND('',#214,.T.);
#145=PLANE('',#215);
#146=PRODUCT_CONTEXT('',#27,'mechanical');
#147=PRODUCT_DEFINITION_FORMATION_WITH_SPECIFIED_SOURCE(' ','NONE',#72,.NOT_KNOWN.);
#148=CLOSED_SHELL('',(#47,#49,#51,#53,#55,#57));
#149=CARTESIAN_POINT('',(0.0,0.0,0.0));
#150=DIRECTION('',(0.0,0.0,1.0));
#151=DIRECTION('',(1.0,0.0,0.0));
#152=CLOSED_SHELL('',(#61,#63,#65,#67,#69,#71));
#153=CARTESIAN_POINT('',(0.0,0.0,0.0));
#154=DIRECTION('',(0.0,0.0,1.0));
#155=DIRECTION('',(1.0,0.0,0.0));
#156=CARTESIAN_POINT('',(0.0,0.0,0.0));
#157=DIRECTION('',(0.0,0.0,1.0));
#158=DIRECTION('',(1.0,0.0,0.0));
#159= (NAMED_UNIT(#85)LENGTH_UNIT()SI_UNIT(.MILLI.,.METRE.));
#160=DRAUGHTING_PRE_DEFINED_CURVE_FONT('continuous');
#161=COLOUR_RGB('',0.0,1.0,0.0);
#162=TRIMMED_CURVE('',#217,(PARAMETER_VALUE(0.0)),(PARAMETER_VALUE(4.0)),.T.,.UNSPECIFIED.);
#163=DRAUGHTING_PRE_DEFINED_CURVE_FONT('continuous');
#164=COLOUR_RGB('',0.498039215803146,0.498039215803146,0.498039215803146);
#165=TRIMMED_CURVE('',#218,(PARAMETER_VALUE(0.0)),(PARAMETER_VALUE(35.2)),.T.,.UNSPECIFIED.);
#166=TRIMMED_CURVE('',#219,(PARAMETER_VALUE(0.0)),(PARAMETER_VALUE(1.13137084989849)),.T.,.UNSPECIFIED.);
#167=TRIMMED_CURVE('',#220,(PARAMETER_VALUE(0.0)),(PARAMETER_VALUE(3.19999999999999)),.T.,.UNSPECIFIED.);
#168=TRIMMED_CURVE('',#221,(PARAMETER_VALUE(0.0)),(PARAMETER_VALUE(42.0)),.T.,.UNSPECIFIED.);
#169=TRIMMED_CURVE('',#222,(PARAMETER_VALUE(0.0)),(PARAMETER_VALUE(0.00538558047261972)),.T.,.UNSPECIFIED.);
#170=TRIMMED_CURVE('',#223,(PARAMETER_VALUE(0.0)),(PARAMETER_VALUE(3.99461441952738)),.T.,.UNSPECIFIED.);
#171=TRIMMED_CURVE('',#224,(PARAMETER_VALUE(0.0)),(PARAMETER_VALUE(6.0)),.T.,.UNSPECIFIED.);
#172=SURFACE_SIDE_STYLE('',(#225));
#173=EDGE_LOOP('',(#226,#227,#228,#229));
#174=AXIS2_PLACEMENT_3D('',#230,#231,#232);
#175=SURFACE_SIDE_STYLE('',(#233));
#176=EDGE_LOOP('',(#234,#235,#236,#237));
#177=AXIS2_PLACEMENT_3D('',#238,#239,#240);
#178=SURFACE_SIDE_STYLE('',(#241));
#179=EDGE_LOOP('',(#242,#243));
#180=AXIS2_PLACEMENT_3D('',#244,#245,#246);
#181=SURFACE_SIDE_STYLE('',(#247));
#182=EDGE_LOOP('',(#248,#249));
#183=AXIS2_PLACEMENT_3D('',#250,#251,#252);
#184=SURFACE_SIDE_STYLE('',(#253));
#185=EDGE_LOOP('',(#254,#255,#256,#257));
#186=AXIS2_PLACEMENT_3D('',#258,#259,#260);
#187=SURFACE_SIDE_STYLE('',(#261));
#188=EDGE_LOOP('',(#262,#263,#264,#265));
#189=AXIS2_PLACEMENT_3D('',#266,#267,#268);
#190=DRAUGHTING_PRE_DEFINED_CURVE_FONT('continuous');
#191=COLOUR_RGB('',0.0,0.0,1.0);
#192=TRIMMED_CURVE('',#269,(PARAMETER_VALUE(0.0)),(PARAMETER_VALUE(0.226274169979811)),.T.,.UNSPECIFIED.);
#193=TRIMMED_CURVE('',#270,(PARAMETER_VALUE(0.0)),(PARAMETER_VALUE(20.84)),.T.,.UNSPECIFIED.);
#194=TRIMMED_CURVE('',#271,(PARAMETER_VALUE(0.0)),(PARAMETER_VALUE(3.99461441952738)),.T.,.UNSPECIFIED.);
#195=TRIMMED_CURVE('',#272,(PARAMETER_VALUE(0.0)),(PARAMETER_VALUE(0.00538558047261972)),.T.,.UNSPECIFIED.);
#196=TRIMMED_CURVE('',#273,(PARAMETER_VALUE(0.0)),(PARAMETER_VALUE(21.0)),.T.,.UNSPECIFIED.);
#197=TRIMMED_CURVE('',#274,(PARAMETER_VALUE(0.0)),(PARAMETER_VALUE(3.83999999999989)),.T.,.UNSPECIFIED.);
#198=SURFACE_SIDE_STYLE('',(#275));
#199=EDGE_LOOP('',(#276,#277,#278,#279));
#200=AXIS2_PLACEMENT_3D('',#280,#281,#282);
#201=SURFACE_SIDE_STYLE('',(#283));
#202=EDGE_LOOP('',(#284,#285,#286,#287));
#203=AXIS2_PLACEMENT_3D('',#288,#289,#290);
#204=SURFACE_SIDE_STYLE('',(#291));
#205=EDGE_LOOP('',(#292,#293));
#206=AXIS2_PLACEMENT_3D('',#294,#295,#296);
#207=SURFACE_SIDE_STYLE('',(#297));
#208=EDGE_LOOP('',(#298,#299,#300,#301));
#209=AXIS2_PLACEMENT_3D('',#302,#303,#304);
#210=SURFACE_SIDE_STYLE('',(#305));
#211=EDGE_LOOP('',(#306,#307,#308,#309));
#212=AXIS2_PLACEMENT_3D('',#310,#311,#312);
#213=SURFACE_SIDE_STYLE('',(#313));
#214=EDGE_LOOP('',(#314,#315));
#215=AXIS2_PLACEMENT_3D('',#316,#317,#318);
#217=LINE('',#319,#320);
#218=LINE('',#321,#322);
#219=LINE('',#323,#324);
#220=LINE('',#325,#326);
#221=LINE('',#327,#328);
#222=LINE('',#329,#330);
#223=LINE('',#331,#332);
#224=LINE('',#333,#334);
#225=SURFACE_STYLE_FILL_AREA(#335);
#226=ORIENTED_EDGE('',*,*,#336,.F.);
#227=ORIENTED_EDGE('',*,*,#337,.T.);
#228=ORIENTED_EDGE('',*,*,#338,.F.);
#229=ORIENTED_EDGE('',*,*,#339,.F.);
#230=CARTESIAN_POINT('',(-8.93992163377567E-16,0.0,14.6));
#231=DIRECTION('',(6.12323399573677E-17,0.0,-1.0));
#232=DIRECTION('',(0.0,1.0,0.0));
#233=SURFACE_STYLE_FILL_AREA(#340);
#234=ORIENTED_EDGE('',*,*,#341,.F.);
#235=ORIENTED_EDGE('',*,*,#342,.T.);
#236=ORIENTED_EDGE('',*,*,#343,.F.);
#237=ORIENTED_EDGE('',*,*,#337,.F.);
#238=CARTESIAN_POINT('',(-2.17987130248229E-15,0.0,35.6));
#239=DIRECTION('',(6.12323399573677E-17,-0.0,-1.0));
#240=DIRECTION('',(0.0,1.0,0.0));
#241=SURFACE_STYLE_FILL_AREA(#344);
#242=ORIENTED_EDGE('',*,*,#339,.T.);
#243=ORIENTED_EDGE('',*,*,#345,.T.);
#244=CARTESIAN_POINT('',(3.67394039744206E-16,2.0,-6.0));
#245=DIRECTION('',(6.12323399573677E-17,0.0,-1.0));
#246=DIRECTION('',(0.0,1.0,0.0));
#247=SURFACE_STYLE_FILL_AREA(#346);
#248=ORIENTED_EDGE('',*,*,#342,.F.);
#249=ORIENTED_EDGE('',*,*,#347,.F.);
#250=CARTESIAN_POINT('',(-2.20436423846524E-15,1.59999999999999,36.0));
#251=DIRECTION('',(-6.12323399573677E-17,0.0,1.0));
#252=DIRECTION('',(0.0,-1.0,0.0));
#253=SURFACE_STYLE_FILL_AREA(#348);
#254=ORIENTED_EDGE('',*,*,#341,.T.);
#255=ORIENTED_EDGE('',*,*,#349,.F.);
#256=ORIENTED_EDGE('',*,*,#343,.T.);
#257=ORIENTED_EDGE('',*,*,#347,.T.);
#258=CARTESIAN_POINT('',(-2.17987130248229E-15,0.0,35.6));
#259=DIRECTION('',(6.12323399573677E-17,-0.0,-1.0));
#260=DIRECTION('',(0.0,1.0,0.0));
#261=SURFACE_STYLE_FILL_AREA(#350);
#262=ORIENTED_EDGE('',*,*,#336,.T.);
#263=ORIENTED_EDGE('',*,*,#345,.F.);
#264=ORIENTED_EDGE('',*,*,#338,.T.);
#265=ORIENTED_EDGE('',*,*,#349,.T.);
#266=CARTESIAN_POINT('',(-8.93992163377567E-16,0.0,14.6));
#267=DIRECTION('',(6.12323399573677E-17,0.0,-1.0));
#268=DIRECTION('',(0.0,1.0,0.0));
#269=LINE('',#351,#352);
#270=LINE('',#353,#354);
#271=LINE('',#355,#356);
#272=LINE('',#357,#358);
#273=LINE('',#359,#360);
#274=LINE('',#361,#362);
#275=SURFACE_STYLE_FILL_AREA(#363);
#276=ORIENTED_EDGE('',*,*,#364,.F.);
#277=ORIENTED_EDGE('',*,*,#365,.T.);
#278=ORIENTED_EDGE('',*,*,#366,.F.);
#279=ORIENTED_EDGE('',*,*,#367,.F.);
#280=CARTESIAN_POINT('',(1.64837459165234E-15,0.0,-26.92));
#281=DIRECTION('',(-6.12323399573677E-17,-0.0,1.0));
#282=DIRECTION('',(0.0,1.0,0.0));
#283=SURFACE_STYLE_FILL_AREA(#368);
#284=ORIENTED_EDGE('',*,*,#369,.F.);
#285=ORIENTED_EDGE('',*,*,#370,.T.);
#286=ORIENTED_EDGE('',*,*,#371,.F.);
#287=ORIENTED_EDGE('',*,*,#365,.F.);
#288=CARTESIAN_POINT('',(1.00543502209998E-15,0.0,-16.42));
#289=DIRECTION('',(6.12323399573677E-17,0.0,-1.0));
#290=DIRECTION('',(0.0,1.0,0.0));
#291=SURFACE_STYLE_FILL_AREA(#372);
#292=ORIENTED_EDGE('',*,*,#370,.F.);
#293=ORIENTED_EDGE('',*,*,#373,.F.);
#294=CARTESIAN_POINT('',(3.67394039744206E-16,2.0,-6.0));
#295=DIRECTION('',(-6.12323399573677E-17,0.0,1.0));
#296=DIRECTION('',(0.0,-1.0,0.0));
#297=SURFACE_STYLE_FILL_AREA(#374);
#298=ORIENTED_EDGE('',*,*,#369,.T.);
#299=ORIENTED_EDGE('',*,*,#375,.F.);
#300=ORIENTED_EDGE('',*,*,#371,.T.);
#301=ORIENTED_EDGE('',*,*,#373,.T.);
#302=CARTESIAN_POINT('',(1.00543502209998E-15,0.0,-16.42));
#303=DIRECTION('',(6.12323399573677E-17,0.0,-1.0));
#304=DIRECTION('',(0.0,1.0,0.0));
#305=SURFACE_STYLE_FILL_AREA(#376);
#306=ORIENTED_EDGE('',*,*,#364,.T.);
#307=ORIENTED_EDGE('',*,*,#377,.F.);
#308=ORIENTED_EDGE('',*,*,#366,.T.);
#309=ORIENTED_EDGE('',*,*,#375,.T.);
#310=CARTESIAN_POINT('',(1.64837459165234E-15,0.0,-26.92));
#311=DIRECTION('',(-6.12323399573677E-17,-0.0,1.0));
#312=DIRECTION('',(0.0,1.0,0.0));
#313=SURFACE_STYLE_FILL_AREA(#378);
#314=ORIENTED_EDGE('',*,*,#367,.T.);
#315=ORIENTED_EDGE('',*,*,#377,.T.);
#316=CARTESIAN_POINT('',(1.65327317884893E-15,1.91999999999994,-27.0));
#317=DIRECTION('',(6.12323399573677E-17,0.0,-1.0));
#318=DIRECTION('',(0.0,1.0,0.0));
#319=CARTESIAN_POINT('',(0.0,4.0,0.0));
#320=VECTOR('',#379,1.0);
#321=CARTESIAN_POINT('',(0.0,4.0,0.0));
#322=VECTOR('',#380,1.0);
#323=CARTESIAN_POINT('',(-2.15537836649934E-15,4.0,35.2));
#324=VECTOR('',#381,1.0);
#325=CARTESIAN_POINT('',(-2.20436423846524E-15,3.19999999999999,36.0));
#326=VECTOR('',#382,1.0);
#327=CARTESIAN_POINT('',(-2.20436423846524E-15,0.0,36.0));
#328=VECTOR('',#383,1.0);
#329=CARTESIAN_POINT('',(3.67394039744206E-16,0.0,-6.0));
#330=VECTOR('',#384,1.0);
#331=CARTESIAN_POINT('',(3.67394039744206E-16,0.00538558047261972,-6.0));
#332=VECTOR('',#385,1.0);
#333=CARTESIAN_POINT('',(3.67394039744206E-16,4.0,-6.0));
#334=VECTOR('',#386,1.0);
#335=FILL_AREA_STYLE('',(#387));
#336=EDGE_CURVE('',#388,#389,#390,.T.);
#337=EDGE_CURVE('',#388,#391,#392,.T.);
#338=EDGE_CURVE('',#393,#391,#394,.T.);
#339=EDGE_CURVE('',#389,#393,#395,.T.);
#340=FILL_AREA_STYLE('',(#396));
#341=EDGE_CURVE('',#397,#388,#398,.T.);
#342=EDGE_CURVE('',#397,#399,#400,.T.);
#343=EDGE_CURVE('',#391,#399,#401,.T.);
#344=FILL_AREA_STYLE('',(#402));
#345=EDGE_CURVE('',#393,#389,#403,.T.);
#346=FILL_AREA_STYLE('',(#404));
#347=EDGE_CURVE('',#399,#397,#405,.T.);
#348=FILL_AREA_STYLE('',(#406));
#349=EDGE_CURVE('',#391,#388,#407,.T.);
#350=FILL_AREA_STYLE('',(#408));
#351=CARTESIAN_POINT('',(1.65327317884893E-15,3.83999999999989,-27.0));
#352=VECTOR('',#409,1.0);
#353=CARTESIAN_POINT('',(1.64347600445575E-15,4.00000000000003,-26.84));
#354=VECTOR('',#410,1.0);
#355=CARTESIAN_POINT('',(3.67394039744206E-16,4.0,-6.0));
#356=VECTOR('',#411,1.0);
#357=CARTESIAN_POINT('',(3.67394039744206E-16,0.00538558047261972,-6.0));
#358=VECTOR('',#412,1.0);
#359=CARTESIAN_POINT('',(3.67394039744206E-16,0.0,-6.0));
#360=VECTOR('',#413,1.0);
#361=CARTESIAN_POINT('',(1.65327317884893E-15,0.0,-27.0));
#362=VECTOR('',#414,1.0);
#363=FILL_AREA_STYLE('',(#415));
#364=EDGE_CURVE('',#416,#417,#418,.T.);
#365=EDGE_CURVE('',#416,#419,#420,.T.);
#366=EDGE_CURVE('',#421,#419,#422,.T.);
#367=EDGE_CURVE('',#417,#421,#423,.T.);
#368=FILL_AREA_STYLE('',(#424));
#369=EDGE_CURVE('',#425,#416,#426,.T.);
#370=EDGE_CURVE('',#425,#427,#428,.T.);
#371=EDGE_CURVE('',#419,#427,#429,.T.);
#372=FILL_AREA_STYLE('',(#430));
#373=EDGE_CURVE('',#427,#425,#431,.T.);
#374=FILL_AREA_STYLE('',(#432));
#375=EDGE_CURVE('',#419,#416,#433,.T.);
#376=FILL_AREA_STYLE('',(#434));
#377=EDGE_CURVE('',#421,#417,#435,.T.);
#378=FILL_AREA_STYLE('',(#436));
#379=DIRECTION('',(0.0,-1.0,0.0));
#380=DIRECTION('',(-6.12323399573677E-17,0.0,1.0));
#381=DIRECTION('',(-4.32978028117748E-17,-0.707106781186547,0.707106781186547));
#382=DIRECTION('',(0.0,-1.0,0.0));
#383=DIRECTION('',(6.12323399573677E-17,0.0,-1.0));
#384=DIRECTION('',(0.0,1.0,0.0));
#385=DIRECTION('',(0.0,1.0,0.0));
#386=DIRECTION('',(-6.12323399573677E-17,0.0,1.0));
#387=FILL_AREA_STYLE_COLOUR('',#437);
#388=VERTEX_POINT('',#438);
#389=VERTEX_POINT('',#439);
#390=LINE('',#440,#441);
#391=VERTEX_POINT('',#442);
#392=CIRCLE('',#443,4.0);
#393=VERTEX_POINT('',#444);
#394=LINE('',#445,#446);
#395=CIRCLE('',#447,4.0);
#396=FILL_AREA_STYLE_COLOUR('',#448);
#397=VERTEX_POINT('',#449);
#398=LINE('',#450,#451);
#399=VERTEX_POINT('',#452);
#400=CIRCLE('',#453,3.19999999999999);
#401=LINE('',#454,#455);
#402=FILL_AREA_STYLE_COLOUR('',#456);
#403=CIRCLE('',#457,4.0);
#404=FILL_AREA_STYLE_COLOUR('',#458);
#405=CIRCLE('',#459,3.19999999999999);
#406=FILL_AREA_STYLE_COLOUR('',#460);
#407=CIRCLE('',#461,4.0);
#408=FILL_AREA_STYLE_COLOUR('',#462);
#409=DIRECTION('',(-4.32978028117594E-17,0.707106781186799,0.707106781186296));
#410=DIRECTION('',(-6.12323399573677E-17,-1.36380563485624E-15,1.0));
#411=DIRECTION('',(0.0,-1.0,0.0));
#412=DIRECTION('',(0.0,-1.0,0.0));
#413=DIRECTION('',(6.12323399573677E-17,0.0,-1.0));
#414=DIRECTION('',(0.0,1.0,0.0));
#415=FILL_AREA_STYLE_COLOUR('',#463);
#416=VERTEX_POINT('',#464);
#417=VERTEX_POINT('',#465);
#418=LINE('',#466,#467);
#419=VERTEX_POINT('',#468);
#420=CIRCLE('',#469,4.00000000000003);
#421=VERTEX_POINT('',#470);
#422=LINE('',#471,#472);
#423=CIRCLE('',#473,3.83999999999989);
#424=FILL_AREA_STYLE_COLOUR('',#474);
#425=VERTEX_POINT('',#475);
#426=LINE('',#476,#477);
#427=VERTEX_POINT('',#478);
#428=CIRCLE('',#479,4.0);
#429=LINE('',#480,#481);
#430=FILL_AREA_STYLE_COLOUR('',#482);
#431=CIRCLE('',#483,4.0);
#432=FILL_AREA_STYLE_COLOUR('',#484);
#433=CIRCLE('',#485,4.00000000000003);
#434=FILL_AREA_STYLE_COLOUR('',#486);
#435=CIRCLE('',#487,3.83999999999989);
#436=FILL_AREA_STYLE_COLOUR('',#488);
#437=COLOUR_RGB('',0.498039215803146,0.498039215803146,0.498039215803146);
#438=CARTESIAN_POINT('',(-2.15537836649934E-15,4.0,35.2));
#439=CARTESIAN_POINT('',(3.67394039744206E-16,4.0,-6.0));
#440=CARTESIAN_POINT('',(-1.38385088303651E-15,4.0,14.6));
#441=VECTOR('',#489,1.0);
#442=CARTESIAN_POINT('',(-1.6655196468404E-15,-4.0,35.2));
#443=AXIS2_PLACEMENT_3D('',#490,#491,#492);
#444=CARTESIAN_POINT('',(8.57252759403147E-16,-4.0,-6.0));
#445=CARTESIAN_POINT('',(-4.04133443718626E-16,-4.0,14.6));
#446=VECTOR('',#493,1.0);
#447=AXIS2_PLACEMENT_3D('',#494,#495,#496);
#448=COLOUR_RGB('',0.498039215803146,0.498039215803146,0.498039215803146);
#449=CARTESIAN_POINT('',(-2.20436423846524E-15,3.19999999999999,36.0));
#450=CARTESIAN_POINT('',(-2.62074415017533E-15,3.59999999999999,35.6));
#451=VECTOR('',#497,1.0);
#452=CARTESIAN_POINT('',(-1.81247726273808E-15,-3.19999999999999,36.0));
#453=AXIS2_PLACEMENT_3D('',#498,#499,#500);
#454=CARTESIAN_POINT('',(-1.73899845478924E-15,-3.59999999999999,35.6));
#455=VECTOR('',#501,1.0);
#456=COLOUR_RGB('',0.498039215803146,0.498039215803146,0.498039215803146);
#457=AXIS2_PLACEMENT_3D('',#502,#503,#504);
#458=COLOUR_RGB('',0.498039215803146,0.498039215803146,0.498039215803146);
#459=AXIS2_PLACEMENT_3D('',#505,#506,#507);
#460=COLOUR_RGB('',0.498039215803146,0.498039215803146,0.498039215803146);
#461=AXIS2_PLACEMENT_3D('',#508,#509,#510);
#462=COLOUR_RGB('',0.498039215803146,0.498039215803146,0.498039215803146);
#463=COLOUR_RGB('',0.800000011920929,0.800000011920929,0.800000011920929);
#464=CARTESIAN_POINT('',(1.64347600445575E-15,4.00000000000003,-26.84));
#465=CARTESIAN_POINT('',(1.65327317884893E-15,3.83999999999989,-27.0));
#466=CARTESIAN_POINT('',(1.16831304638658E-15,3.91999999999996,-26.92));
#467=VECTOR('',#511,1.0);
#468=CARTESIAN_POINT('',(2.13333472411469E-15,-4.00000000000003,-26.84));
#469=AXIS2_PLACEMENT_3D('',#512,#513,#514);
#470=CARTESIAN_POINT('',(2.1235375497215E-15,-3.83999999999989,-27.0));
#471=CARTESIAN_POINT('',(2.12843613691809E-15,-3.91999999999996,-26.92));
#472=VECTOR('',#515,1.0);
#473=AXIS2_PLACEMENT_3D('',#516,#517,#518);
#474=COLOUR_RGB('',0.800000011920929,0.800000011920929,0.800000011920929);
#475=CARTESIAN_POINT('',(3.67394039744206E-16,4.0,-6.0));
#476=CARTESIAN_POINT('',(5.15576302441033E-16,4.00000000000001,-16.42));
#477=VECTOR('',#519,1.0);
#478=CARTESIAN_POINT('',(8.57252759403147E-16,-4.0,-6.0));
#479=AXIS2_PLACEMENT_3D('',#520,#521,#522);
#480=CARTESIAN_POINT('',(1.49529374175892E-15,-4.00000000000001,-16.42));
#481=VECTOR('',#523,1.0);
#482=COLOUR_RGB('',0.800000011920929,0.800000011920929,0.800000011920929);
#483=AXIS2_PLACEMENT_3D('',#524,#525,#526);
#484=COLOUR_RGB('',0.800000011920929,0.800000011920929,0.800000011920929);
#485=AXIS2_PLACEMENT_3D('',#527,#528,#529);
#486=COLOUR_RGB('',0.800000011920929,0.800000011920929,0.800000011920929);
#487=AXIS2_PLACEMENT_3D('',#530,#531,#532);
#488=COLOUR_RGB('',0.800000011920929,0.800000011920929,0.800000011920929);
#489=DIRECTION('',(6.12323399573677E-17,0.0,-1.0));
#490=CARTESIAN_POINT('',(-2.15537836649934E-15,0.0,35.2));
#491=DIRECTION('',(6.12323399573677E-17,0.0,-1.0));
#492=DIRECTION('',(0.0,1.0,0.0));
#493=DIRECTION('',(-6.12323399573677E-17,-0.0,1.0));
#494=CARTESIAN_POINT('',(3.67394039744206E-16,0.0,-6.0));
#495=DIRECTION('',(6.12323399573677E-17,0.0,-1.0));
#496=DIRECTION('',(0.0,1.0,0.0));
#497=DIRECTION('',(-4.32978028117747E-17,0.707106781186547,-0.707106781186548));
#498=CARTESIAN_POINT('',(-2.20436423846524E-15,0.0,36.0));
#499=DIRECTION('',(6.12323399573677E-17,0.0,-1.0));
#500=DIRECTION('',(0.0,1.0,0.0));
#501=DIRECTION('',(-1.29893408435324E-16,0.707106781186547,0.707106781186548));
#502=CARTESIAN_POINT('',(3.67394039744206E-16,0.0,-6.0));
#503=DIRECTION('',(6.12323399573677E-17,0.0,-1.0));
#504=DIRECTION('',(0.0,1.0,0.0));
#505=CARTESIAN_POINT('',(-2.20436423846524E-15,0.0,36.0));
#506=DIRECTION('',(6.12323399573677E-17,0.0,-1.0));
#507=DIRECTION('',(0.0,1.0,0.0));
#508=CARTESIAN_POINT('',(-2.15537836649934E-15,0.0,35.2));
#509=DIRECTION('',(6.12323399573677E-17,0.0,-1.0));
#510=DIRECTION('',(0.0,1.0,0.0));
#511=DIRECTION('',(1.29893408435339E-16,-0.707106781186799,-0.707106781186296));
#512=CARTESIAN_POINT('',(1.64347600445575E-15,0.0,-26.84));
#513=DIRECTION('',(6.12323399573676E-17,0.0,-1.0));
#514=DIRECTION('',(0.0,1.0,0.0));
#515=DIRECTION('',(4.32978028118208E-17,-0.707106781186799,0.707106781186296));
#516=CARTESIAN_POINT('',(1.65327317884893E-15,0.0,-27.0));
#517=DIRECTION('',(6.12323399573676E-17,0.0,-1.0));
#518=DIRECTION('',(0.0,1.0,0.0));
#519=DIRECTION('',(6.12323399573677E-17,0.0,-1.0));
#520=CARTESIAN_POINT('',(3.67394039744206E-16,0.0,-6.0));
#521=DIRECTION('',(6.12323399573677E-17,0.0,-1.0));
#522=DIRECTION('',(0.0,1.0,0.0));
#523=DIRECTION('',(-6.12323399573677E-17,-0.0,1.0));
#524=CARTESIAN_POINT('',(3.67394039744206E-16,0.0,-6.0));
#525=DIRECTION('',(6.12323399573677E-17,0.0,-1.0));
#526=DIRECTION('',(0.0,1.0,0.0));
#527=CARTESIAN_POINT('',(1.64347600445575E-15,0.0,-26.84));
#528=DIRECTION('',(6.12323399573676E-17,0.0,-1.0));
#529=DIRECTION('',(0.0,1.0,0.0));
#530=CARTESIAN_POINT('',(1.65327317884893E-15,0.0,-27.0));
#531=DIRECTION('',(6.12323399573676E-17,0.0,-1.0));
#532=DIRECTION('',(0.0,1.0,0.0));
#533=DIRECTION('',(0.0,0.0,1.0));
#534=DIRECTION('',(1.0,0.0,0.0));
#535=CARTESIAN_POINT('',(0.0,0.0,36.000000));
#536=AXIS2_PLACEMENT_3D('PCS', #535,#533,#534);
#537=CARTESIAN_POINT('',(0.0,0.0,0.000000));
#538=AXIS2_PLACEMENT_3D('MCS', #537,#533,#534);
#539=CARTESIAN_POINT('',(0.0,0.0,-27.000000));
#540=AXIS2_PLACEMENT_3D('CIP', #539,#533,#534);
ENDSEC;
END-ISO-10303-21;
