ISO-10303-21;
HEADER;
FILE_DESCRIPTION(('STEP AP214'),'1');
FILE_NAME('607905869-000-00-E43.stp','2023-02-10T11:03:52',(' '),(' '),'Spatial InterOp 3D',' ',' ');
FILE_SCHEMA(('AUTOMOTIVE_DESIGN { 1 0 10303 214 1 1 1 1 }'));
ENDSEC;
DATA;
#1=MECHANICAL_DESIGN_GEOMETRIC_PRESENTATION_REPRESENTATION(' ',(#12,#13,#14,#15,#16,#17,#18,#19,#20,#21,#22,#23,#24,#25,#26,#27,#28),#8);
#2=PRODUCT_DEFINITION_CONTEXT('',#29,'design');
#3=APPLICATION_PROTOCOL_DEFINITION('INTERNATIONAL STANDARD','automotive_design',1994,#29);
#4=PRODUCT_CATEGORY_RELATIONSHIP('NONE','NONE',#30,#31);
#5=SHAPE_DEFINITION_REPRESENTATION(#32,#33);
#6=SHAPE_DEFINITION_REPRESENTATION(#32,#34);
#7=SHAPE_DEFINITION_REPRESENTATION(#32,#35);
#8= (GEOMETRIC_REPRESENTATION_CONTEXT(3)GLOBAL_UNCERTAINTY_ASSIGNED_CONTEXT((#38))GLOBAL_UNIT_ASSIGNED_CONTEXT((#40,#41,#42))REPRESENTATION_CONTEXT('NONE','WORKSPACE'));
#12=STYLED_ITEM('',(#44),#45);
#13=STYLED_ITEM('',(#46),#47);
#14=STYLED_ITEM('',(#48),#49);
#15=STYLED_ITEM('',(#50),#51);
#16=STYLED_ITEM('',(#52),#53);
#17=STYLED_ITEM('',(#54),#55);
#18=STYLED_ITEM('',(#56),#57);
#19=STYLED_ITEM('',(#58),#59);
#20=STYLED_ITEM('',(#60),#61);
#21=STYLED_ITEM('',(#62),#63);
#22=STYLED_ITEM('',(#64),#65);
#23=STYLED_ITEM('',(#66),#67);
#24=STYLED_ITEM('',(#68),#69);
#25=STYLED_ITEM('',(#70),#71);
#26=STYLED_ITEM('',(#72),#73);
#27=STYLED_ITEM('',(#74),#75);
#28=STYLED_ITEM('',(#76),#77);
#29=APPLICATION_CONTEXT(' ');
#30=PRODUCT_CATEGORY('part','NONE');
#31=PRODUCT_RELATED_PRODUCT_CATEGORY('detail',' ',(#78));
#32=PRODUCT_DEFINITION_SHAPE('NONE','NONE',#79);
#33=ADVANCED_BREP_SHAPE_REPRESENTATION('1',(#80,#81),#8);
#34=ADVANCED_BREP_SHAPE_REPRESENTATION('2',(#82,#83),#8);
#35=GEOMETRICALLY_BOUNDED_SURFACE_SHAPE_REPRESENTATION('3',(#84,#85),#8);
#38=UNCERTAINTY_MEASURE_WITH_UNIT(LENGTH_MEASURE(1.0E-06),#40,'','');
#40= (CONVERSION_BASED_UNIT('MILLIMETRE',#88)LENGTH_UNIT()NAMED_UNIT(#91));
#41= (NAMED_UNIT(#93)PLANE_ANGLE_UNIT()SI_UNIT($,.RADIAN.));
#42= (NAMED_UNIT(#93)SOLID_ANGLE_UNIT()SI_UNIT($,.STERADIAN.));
#44=PRESENTATION_STYLE_ASSIGNMENT((#99));
#45=COMPOSITE_CURVE('',(#100),.U.);
#46=PRESENTATION_STYLE_ASSIGNMENT((#101));
#47=COMPOSITE_CURVE('',(#102),.U.);
#48=PRESENTATION_STYLE_ASSIGNMENT((#103));
#49=ADVANCED_FACE('',(#104),#105,.T.);
#50=PRESENTATION_STYLE_ASSIGNMENT((#106));
#51=ADVANCED_FACE('',(#107),#108,.T.);
#52=PRESENTATION_STYLE_ASSIGNMENT((#109));
#53=ADVANCED_FACE('',(#110),#111,.T.);
#54=PRESENTATION_STYLE_ASSIGNMENT((#112));
#55=ADVANCED_FACE('',(#113),#114,.T.);
#56=PRESENTATION_STYLE_ASSIGNMENT((#115));
#57=ADVANCED_FACE('',(#116),#117,.T.);
#58=PRESENTATION_STYLE_ASSIGNMENT((#118));
#59=ADVANCED_FACE('',(#119),#120,.T.);
#60=PRESENTATION_STYLE_ASSIGNMENT((#121));
#61=ADVANCED_FACE('',(#122),#123,.F.);
#62=PRESENTATION_STYLE_ASSIGNMENT((#124));
#63=ADVANCED_FACE('',(#125),#126,.T.);
#64=PRESENTATION_STYLE_ASSIGNMENT((#127));
#65=ADVANCED_FACE('',(#128),#129,.T.);
#66=PRESENTATION_STYLE_ASSIGNMENT((#130));
#67=ADVANCED_FACE('',(#131),#132,.T.);
#68=PRESENTATION_STYLE_ASSIGNMENT((#133));
#69=ADVANCED_FACE('',(#134),#135,.T.);
#70=PRESENTATION_STYLE_ASSIGNMENT((#136));
#71=ADVANCED_FACE('',(#137),#138,.T.);
#72=PRESENTATION_STYLE_ASSIGNMENT((#139));
#73=ADVANCED_FACE('',(#140),#141,.F.);
#74=PRESENTATION_STYLE_ASSIGNMENT((#142));
#75=ADVANCED_FACE('',(#143),#144,.T.);
#76=PRESENTATION_STYLE_ASSIGNMENT((#145));
#77=ADVANCED_FACE('',(#146),#147,.T.);
#78=PRODUCT('1','','PART--DESC',(#148));
#79=PRODUCT_DEFINITION('','NONE',#149,#2);
#80=MANIFOLD_SOLID_BREP('1',#150);
#81=AXIS2_PLACEMENT_3D('',#151,#152,#153);
#82=MANIFOLD_SOLID_BREP('2',#154);
#83=AXIS2_PLACEMENT_3D('',#155,#156,#157);
#84=GEOMETRIC_SET('3',(#45,#47));
#85=AXIS2_PLACEMENT_3D('',#158,#159,#160);
#88=LENGTH_MEASURE_WITH_UNIT(LENGTH_MEASURE(1.0),#161);
#91=DIMENSIONAL_EXPONENTS(1.0,0.0,0.0,0.0,0.0,0.0,0.0);
#93=DIMENSIONAL_EXPONENTS(0.0,0.0,0.0,0.0,0.0,0.0,0.0);
#99=CURVE_STYLE('',#162,POSITIVE_LENGTH_MEASURE(1.0E-06),#163);
#100=COMPOSITE_CURVE_SEGMENT(.CONTINUOUS.,.T.,#164);
#101=CURVE_STYLE('',#165,POSITIVE_LENGTH_MEASURE(1.0E-06),#166);
#102=COMPOSITE_CURVE_SEGMENT(.CONTINUOUS.,.T.,#167);
#103=SURFACE_STYLE_USAGE(.BOTH.,#168);
#104=FACE_OUTER_BOUND('',#169,.T.);
#105=SPHERICAL_SURFACE('',#170,1.5);
#106=SURFACE_STYLE_USAGE(.BOTH.,#171);
#107=FACE_OUTER_BOUND('',#172,.T.);
#108=CYLINDRICAL_SURFACE('',#173,1.5);
#109=SURFACE_STYLE_USAGE(.BOTH.,#174);
#110=FACE_OUTER_BOUND('',#175,.T.);
#111=PLANE('',#176);
#112=SURFACE_STYLE_USAGE(.BOTH.,#177);
#113=FACE_OUTER_BOUND('',#178,.T.);
#114=CYLINDRICAL_SURFACE('',#179,1.5);
#115=SURFACE_STYLE_USAGE(.BOTH.,#180);
#116=FACE_OUTER_BOUND('',#181,.T.);
#117=SPHERICAL_SURFACE('',#182,1.5);
#118=SURFACE_STYLE_USAGE(.BOTH.,#183);
#119=FACE_OUTER_BOUND('',#184,.T.);
#120=CYLINDRICAL_SURFACE('',#185,1.425);
#121=SURFACE_STYLE_USAGE(.BOTH.,#186);
#122=FACE_OUTER_BOUND('',#187,.T.);
#123=TOROIDAL_SURFACE('',#188,5.425,4.0);
#124=SURFACE_STYLE_USAGE(.BOTH.,#189);
#125=FACE_OUTER_BOUND('',#190,.T.);
#126=CYLINDRICAL_SURFACE('',#191,2.0);
#127=SURFACE_STYLE_USAGE(.BOTH.,#192);
#128=FACE_OUTER_BOUND('',#193,.T.);
#129=CONICAL_SURFACE('',#194,1.7,0.785398163397448);
#130=SURFACE_STYLE_USAGE(.BOTH.,#195);
#131=FACE_OUTER_BOUND('',#196,.T.);
#132=PLANE('',#197);
#133=SURFACE_STYLE_USAGE(.BOTH.,#198);
#134=FACE_OUTER_BOUND('',#199,.T.);
#135=CONICAL_SURFACE('',#200,1.7,0.785398163397448);
#136=SURFACE_STYLE_USAGE(.BOTH.,#201);
#137=FACE_OUTER_BOUND('',#202,.T.);
#138=CYLINDRICAL_SURFACE('',#203,2.0);
#139=SURFACE_STYLE_USAGE(.BOTH.,#204);
#140=FACE_OUTER_BOUND('',#205,.T.);
#141=TOROIDAL_SURFACE('',#206,5.425,4.0);
#142=SURFACE_STYLE_USAGE(.BOTH.,#207);
#143=FACE_OUTER_BOUND('',#208,.T.);
#144=CYLINDRICAL_SURFACE('',#209,1.425);
#145=SURFACE_STYLE_USAGE(.BOTH.,#210);
#146=FACE_OUTER_BOUND('',#211,.T.);
#147=PLANE('',#212);
#148=PRODUCT_CONTEXT('',#29,'mechanical');
#149=PRODUCT_DEFINITION_FORMATION_WITH_SPECIFIED_SOURCE(' ','NONE',#78,.NOT_KNOWN.);
#150=CLOSED_SHELL('',(#49,#51,#53,#55,#57));
#151=CARTESIAN_POINT('',(0.0,0.0,0.0));
#152=DIRECTION('',(0.0,0.0,1.0));
#153=DIRECTION('',(1.0,0.0,0.0));
#154=CLOSED_SHELL('',(#59,#61,#63,#65,#67,#69,#71,#73,#75,#77));
#155=CARTESIAN_POINT('',(0.0,0.0,0.0));
#156=DIRECTION('',(0.0,0.0,1.0));
#157=DIRECTION('',(1.0,0.0,0.0));
#158=CARTESIAN_POINT('',(0.0,0.0,0.0));
#159=DIRECTION('',(0.0,0.0,1.0));
#160=DIRECTION('',(1.0,0.0,0.0));
#161= (NAMED_UNIT(#91)LENGTH_UNIT()SI_UNIT(.MILLI.,.METRE.));
#162=DRAUGHTING_PRE_DEFINED_CURVE_FONT('continuous');
#163=COLOUR_RGB('',0.0,1.0,0.0);
#164=TRIMMED_CURVE('',#214,(PARAMETER_VALUE(0.0)),(PARAMETER_VALUE(2.0)),.T.,.UNSPECIFIED.);
#165=DRAUGHTING_PRE_DEFINED_CURVE_FONT('continuous');
#166=COLOUR_RGB('',0.0,1.0,0.0);
#167=TRIMMED_CURVE('',#215,(PARAMETER_VALUE(0.0)),(PARAMETER_VALUE(2.0)),.T.,.UNSPECIFIED.);
#168=SURFACE_SIDE_STYLE('',(#216));
#169=EDGE_LOOP('',(#217,#218,#219));
#170=AXIS2_PLACEMENT_3D('',#220,#221,#222);
#171=SURFACE_SIDE_STYLE('',(#223));
#172=EDGE_LOOP('',(#224,#225,#226,#227,#228));
#173=AXIS2_PLACEMENT_3D('',#229,#230,#231);
#174=SURFACE_SIDE_STYLE('',(#232));
#175=EDGE_LOOP('',(#233,#234));
#176=AXIS2_PLACEMENT_3D('',#235,#236,#237);
#177=SURFACE_SIDE_STYLE('',(#238));
#178=EDGE_LOOP('',(#239,#240,#241,#242,#243));
#179=AXIS2_PLACEMENT_3D('',#244,#245,#246);
#180=SURFACE_SIDE_STYLE('',(#247));
#181=EDGE_LOOP('',(#248,#249,#250));
#182=AXIS2_PLACEMENT_3D('',#251,#252,#253);
#183=SURFACE_SIDE_STYLE('',(#254));
#184=EDGE_LOOP('',(#255,#256,#257,#258,#259));
#185=AXIS2_PLACEMENT_3D('',#260,#261,#262);
#186=SURFACE_SIDE_STYLE('',(#263));
#187=EDGE_LOOP('',(#264,#265,#266,#267,#268,#269));
#188=AXIS2_PLACEMENT_3D('',#270,#271,#272);
#189=SURFACE_SIDE_STYLE('',(#273));
#190=EDGE_LOOP('',(#274,#275,#276,#277,#278));
#191=AXIS2_PLACEMENT_3D('',#279,#280,#281);
#192=SURFACE_SIDE_STYLE('',(#282));
#193=EDGE_LOOP('',(#283,#284,#285,#286));
#194=AXIS2_PLACEMENT_3D('',#287,#288,#289);
#195=SURFACE_SIDE_STYLE('',(#290));
#196=EDGE_LOOP('',(#291,#292));
#197=AXIS2_PLACEMENT_3D('',#293,#294,#295);
#198=SURFACE_SIDE_STYLE('',(#296));
#199=EDGE_LOOP('',(#297,#298,#299,#300));
#200=AXIS2_PLACEMENT_3D('',#301,#302,#303);
#201=SURFACE_SIDE_STYLE('',(#304));
#202=EDGE_LOOP('',(#305,#306,#307,#308,#309));
#203=AXIS2_PLACEMENT_3D('',#310,#311,#312);
#204=SURFACE_SIDE_STYLE('',(#313));
#205=EDGE_LOOP('',(#314,#315,#316,#317,#318,#319));
#206=AXIS2_PLACEMENT_3D('',#320,#321,#322);
#207=SURFACE_SIDE_STYLE('',(#323));
#208=EDGE_LOOP('',(#324,#325,#326,#327,#328));
#209=AXIS2_PLACEMENT_3D('',#329,#330,#331);
#210=SURFACE_SIDE_STYLE('',(#332));
#211=EDGE_LOOP('',(#333,#334));
#212=AXIS2_PLACEMENT_3D('',#335,#336,#337);
#214=LINE('',#338,#339);
#215=LINE('',#340,#341);
#216=SURFACE_STYLE_FILL_AREA(#342);
#217=ORIENTED_EDGE('',*,*,#343,.F.);
#218=ORIENTED_EDGE('',*,*,#344,.T.);
#219=ORIENTED_EDGE('',*,*,#345,.T.);
#220=CARTESIAN_POINT('',(1.25931940328028E-15,0.0,-20.5662465970934));
#221=DIRECTION('',(1.0,0.0,6.12323399573677E-17));
#222=DIRECTION('',(6.12323399573677E-17,0.0,-1.0));
#223=SURFACE_STYLE_FILL_AREA(#346);
#224=ORIENTED_EDGE('',*,*,#347,.F.);
#225=ORIENTED_EDGE('',*,*,#348,.T.);
#226=ORIENTED_EDGE('',*,*,#349,.F.);
#227=ORIENTED_EDGE('',*,*,#350,.F.);
#228=ORIENTED_EDGE('',*,*,#345,.F.);
#229=CARTESIAN_POINT('',(1.24401131829094E-15,0.0,-20.3162465970934));
#230=DIRECTION('',(6.12323399573676E-17,0.0,-1.0));
#231=DIRECTION('',(0.0,1.0,0.0));
#232=SURFACE_STYLE_FILL_AREA(#351);
#233=ORIENTED_EDGE('',*,*,#348,.F.);
#234=ORIENTED_EDGE('',*,*,#352,.F.);
#235=CARTESIAN_POINT('',(1.22870323330159E-15,0.75,-20.0662465970934));
#236=DIRECTION('',(-6.12323399573677E-17,0.0,1.0));
#237=DIRECTION('',(0.0,-1.0,0.0));
#238=SURFACE_STYLE_FILL_AREA(#353);
#239=ORIENTED_EDGE('',*,*,#347,.T.);
#240=ORIENTED_EDGE('',*,*,#344,.F.);
#241=ORIENTED_EDGE('',*,*,#354,.F.);
#242=ORIENTED_EDGE('',*,*,#349,.T.);
#243=ORIENTED_EDGE('',*,*,#352,.T.);
#244=CARTESIAN_POINT('',(1.24401131829094E-15,0.0,-20.3162465970934));
#245=DIRECTION('',(6.12323399573676E-17,0.0,-1.0));
#246=DIRECTION('',(0.0,1.0,0.0));
#247=SURFACE_STYLE_FILL_AREA(#355);
#248=ORIENTED_EDGE('',*,*,#343,.T.);
#249=ORIENTED_EDGE('',*,*,#350,.T.);
#250=ORIENTED_EDGE('',*,*,#354,.T.);
#251=CARTESIAN_POINT('',(1.25931940328028E-15,0.0,-20.5662465970934));
#252=DIRECTION('',(1.0,0.0,6.12323399573677E-17));
#253=DIRECTION('',(6.12323399573677E-17,0.0,-1.0));
#254=SURFACE_STYLE_FILL_AREA(#356);
#255=ORIENTED_EDGE('',*,*,#357,.F.);
#256=ORIENTED_EDGE('',*,*,#358,.T.);
#257=ORIENTED_EDGE('',*,*,#359,.T.);
#258=ORIENTED_EDGE('',*,*,#360,.F.);
#259=ORIENTED_EDGE('',*,*,#361,.F.);
#260=CARTESIAN_POINT('',(6.77612173685286E-16,0.0,-11.0662465970934));
#261=DIRECTION('',(6.12323399573676E-17,0.0,-1.0));
#262=DIRECTION('',(0.0,1.0,0.0));
#263=SURFACE_STYLE_FILL_AREA(#362);
#264=ORIENTED_EDGE('',*,*,#363,.F.);
#265=ORIENTED_EDGE('',*,*,#364,.T.);
#266=ORIENTED_EDGE('',*,*,#365,.T.);
#267=ORIENTED_EDGE('',*,*,#366,.F.);
#268=ORIENTED_EDGE('',*,*,#367,.F.);
#269=ORIENTED_EDGE('',*,*,#359,.F.);
#270=CARTESIAN_POINT('',(1.26521114068977E-16,0.0,-2.06624659709339));
#271=DIRECTION('',(6.12323399573676E-17,0.0,-1.0));
#272=DIRECTION('',(-1.0,0.0,-6.12323399573677E-17));
#273=SURFACE_STYLE_FILL_AREA(#368);
#274=ORIENTED_EDGE('',*,*,#369,.F.);
#275=ORIENTED_EDGE('',*,*,#370,.T.);
#276=ORIENTED_EDGE('',*,*,#371,.F.);
#277=ORIENTED_EDGE('',*,*,#364,.F.);
#278=ORIENTED_EDGE('',*,*,#372,.F.);
#279=CARTESIAN_POINT('',(-1.14301654012565E-15,0.0,18.6668767014533));
#280=DIRECTION('',(6.12323399573676E-17,0.0,-1.0));
#281=DIRECTION('',(0.0,1.0,0.0));
#282=SURFACE_STYLE_FILL_AREA(#373);
#283=ORIENTED_EDGE('',*,*,#374,.F.);
#284=ORIENTED_EDGE('',*,*,#375,.T.);
#285=ORIENTED_EDGE('',*,*,#376,.F.);
#286=ORIENTED_EDGE('',*,*,#370,.F.);
#287=CARTESIAN_POINT('',(-2.30440278223852E-15,0.0,37.6337534029066));
#288=DIRECTION('',(6.12323399573677E-17,-0.0,-1.0));
#289=DIRECTION('',(0.0,1.0,0.0));
#290=SURFACE_STYLE_FILL_AREA(#377);
#291=ORIENTED_EDGE('',*,*,#375,.F.);
#292=ORIENTED_EDGE('',*,*,#378,.F.);
#293=CARTESIAN_POINT('',(-2.32277248422573E-15,0.699999999999999,37.9337534029066));
#294=DIRECTION('',(-6.12323399573677E-17,0.0,1.0));
#295=DIRECTION('',(0.0,-1.0,0.0));
#296=SURFACE_STYLE_FILL_AREA(#379);
#297=ORIENTED_EDGE('',*,*,#374,.T.);
#298=ORIENTED_EDGE('',*,*,#380,.F.);
#299=ORIENTED_EDGE('',*,*,#376,.T.);
#300=ORIENTED_EDGE('',*,*,#378,.T.);
#301=CARTESIAN_POINT('',(-2.30440278223852E-15,0.0,37.6337534029066));
#302=DIRECTION('',(6.12323399573677E-17,-0.0,-1.0));
#303=DIRECTION('',(0.0,1.0,0.0));
#304=SURFACE_STYLE_FILL_AREA(#381);
#305=ORIENTED_EDGE('',*,*,#369,.T.);
#306=ORIENTED_EDGE('',*,*,#382,.F.);
#307=ORIENTED_EDGE('',*,*,#365,.F.);
#308=ORIENTED_EDGE('',*,*,#371,.T.);
#309=ORIENTED_EDGE('',*,*,#380,.T.);
#310=CARTESIAN_POINT('',(-1.14301654012565E-15,0.0,18.6668767014533));
#311=DIRECTION('',(6.12323399573676E-17,0.0,-1.0));
#312=DIRECTION('',(0.0,1.0,0.0));
#313=SURFACE_STYLE_FILL_AREA(#383);
#314=ORIENTED_EDGE('',*,*,#363,.T.);
#315=ORIENTED_EDGE('',*,*,#358,.F.);
#316=ORIENTED_EDGE('',*,*,#384,.F.);
#317=ORIENTED_EDGE('',*,*,#366,.T.);
#318=ORIENTED_EDGE('',*,*,#382,.T.);
#319=ORIENTED_EDGE('',*,*,#372,.T.);
#320=CARTESIAN_POINT('',(1.26521114068977E-16,0.0,-2.06624659709339));
#321=DIRECTION('',(6.12323399573676E-17,0.0,-1.0));
#322=DIRECTION('',(-1.0,0.0,-6.12323399573677E-17));
#323=SURFACE_STYLE_FILL_AREA(#385);
#324=ORIENTED_EDGE('',*,*,#357,.T.);
#325=ORIENTED_EDGE('',*,*,#386,.F.);
#326=ORIENTED_EDGE('',*,*,#360,.T.);
#327=ORIENTED_EDGE('',*,*,#367,.T.);
#328=ORIENTED_EDGE('',*,*,#384,.T.);
#329=CARTESIAN_POINT('',(6.77612173685286E-16,0.0,-11.0662465970934));
#330=DIRECTION('',(6.12323399573676E-17,0.0,-1.0));
#331=DIRECTION('',(0.0,1.0,0.0));
#332=SURFACE_STYLE_FILL_AREA(#387);
#333=ORIENTED_EDGE('',*,*,#361,.T.);
#334=ORIENTED_EDGE('',*,*,#386,.T.);
#335=CARTESIAN_POINT('',(1.22870323330159E-15,0.7125,-20.0662465970934));
#336=DIRECTION('',(6.12323399573677E-17,0.0,-1.0));
#337=DIRECTION('',(0.0,1.0,0.0));
#338=CARTESIAN_POINT('',(0.0,2.0,0.0));
#339=VECTOR('',#388,1.0);
#340=CARTESIAN_POINT('',(0.0,-2.0,0.0));
#341=VECTOR('',#389,1.0);
#342=FILL_AREA_STYLE('',(#390));
#343=EDGE_CURVE('',#391,#392,#393,.T.);
#344=EDGE_CURVE('',#391,#394,#395,.T.);
#345=EDGE_CURVE('',#394,#392,#396,.T.);
#346=FILL_AREA_STYLE('',(#397));
#347=EDGE_CURVE('',#398,#394,#399,.T.);
#348=EDGE_CURVE('',#398,#400,#401,.T.);
#349=EDGE_CURVE('',#402,#400,#403,.T.);
#350=EDGE_CURVE('',#392,#402,#404,.T.);
#351=FILL_AREA_STYLE('',(#405));
#352=EDGE_CURVE('',#400,#398,#406,.T.);
#353=FILL_AREA_STYLE('',(#407));
#354=EDGE_CURVE('',#402,#391,#408,.T.);
#355=FILL_AREA_STYLE('',(#409));
#356=FILL_AREA_STYLE('',(#410));
#357=EDGE_CURVE('',#411,#412,#413,.T.);
#358=EDGE_CURVE('',#411,#414,#415,.T.);
#359=EDGE_CURVE('',#414,#416,#417,.T.);
#360=EDGE_CURVE('',#418,#416,#419,.T.);
#361=EDGE_CURVE('',#412,#418,#420,.T.);
#362=FILL_AREA_STYLE('',(#421));
#363=EDGE_CURVE('',#422,#414,#423,.T.);
#364=EDGE_CURVE('',#422,#424,#425,.T.);
#365=EDGE_CURVE('',#424,#426,#427,.T.);
#366=EDGE_CURVE('',#428,#426,#429,.T.);
#367=EDGE_CURVE('',#416,#428,#430,.T.);
#368=FILL_AREA_STYLE('',(#431));
#369=EDGE_CURVE('',#432,#433,#434,.T.);
#370=EDGE_CURVE('',#432,#435,#436,.T.);
#371=EDGE_CURVE('',#424,#435,#437,.T.);
#372=EDGE_CURVE('',#433,#422,#438,.T.);
#373=FILL_AREA_STYLE('',(#439));
#374=EDGE_CURVE('',#440,#432,#441,.T.);
#375=EDGE_CURVE('',#440,#442,#443,.T.);
#376=EDGE_CURVE('',#435,#442,#444,.T.);
#377=FILL_AREA_STYLE('',(#445));
#378=EDGE_CURVE('',#442,#440,#446,.T.);
#379=FILL_AREA_STYLE('',(#447));
#380=EDGE_CURVE('',#435,#432,#448,.T.);
#381=FILL_AREA_STYLE('',(#449));
#382=EDGE_CURVE('',#426,#433,#450,.T.);
#383=FILL_AREA_STYLE('',(#451));
#384=EDGE_CURVE('',#428,#411,#452,.T.);
#385=FILL_AREA_STYLE('',(#453));
#386=EDGE_CURVE('',#418,#412,#454,.T.);
#387=FILL_AREA_STYLE('',(#455));
#388=DIRECTION('',(0.0,-1.0,0.0));
#389=DIRECTION('',(0.0,1.0,0.0));
#390=FILL_AREA_STYLE_COLOUR('',#456);
#391=VERTEX_POINT('',#457);
#392=VERTEX_POINT('',#458);
#393=CIRCLE('',#459,1.5);
#394=VERTEX_POINT('',#460);
#395=CIRCLE('',#461,1.5);
#396=CIRCLE('',#462,1.5);
#397=FILL_AREA_STYLE_COLOUR('',#463);
#398=VERTEX_POINT('',#464);
#399=LINE('',#465,#466);
#400=VERTEX_POINT('',#467);
#401=CIRCLE('',#468,1.5);
#402=VERTEX_POINT('',#469);
#403=LINE('',#470,#471);
#404=CIRCLE('',#472,1.5);
#405=FILL_AREA_STYLE_COLOUR('',#473);
#406=CIRCLE('',#474,1.5);
#407=FILL_AREA_STYLE_COLOUR('',#475);
#408=CIRCLE('',#476,1.5);
#409=FILL_AREA_STYLE_COLOUR('',#477);
#410=FILL_AREA_STYLE_COLOUR('',#478);
#411=VERTEX_POINT('',#479);
#412=VERTEX_POINT('',#480);
#413=LINE('',#481,#482);
#414=VERTEX_POINT('',#483);
#415=CIRCLE('',#484,1.425);
#416=VERTEX_POINT('',#485);
#417=CIRCLE('',#486,1.425);
#418=VERTEX_POINT('',#487);
#419=LINE('',#488,#489);
#420=CIRCLE('',#490,1.425);
#421=FILL_AREA_STYLE_COLOUR('',#491);
#422=VERTEX_POINT('',#492);
#423=CIRCLE('',#493,4.0);
#424=VERTEX_POINT('',#494);
#425=CIRCLE('',#495,2.0);
#426=VERTEX_POINT('',#496);
#427=CIRCLE('',#497,2.0);
#428=VERTEX_POINT('',#498);
#429=CIRCLE('',#499,4.0);
#430=CIRCLE('',#500,1.425);
#431=FILL_AREA_STYLE_COLOUR('',#501);
#432=VERTEX_POINT('',#502);
#433=VERTEX_POINT('',#503);
#434=LINE('',#504,#505);
#435=VERTEX_POINT('',#506);
#436=CIRCLE('',#507,2.0);
#437=LINE('',#508,#509);
#438=CIRCLE('',#510,2.0);
#439=FILL_AREA_STYLE_COLOUR('',#511);
#440=VERTEX_POINT('',#512);
#441=LINE('',#513,#514);
#442=VERTEX_POINT('',#515);
#443=CIRCLE('',#516,1.4);
#444=LINE('',#517,#518);
#445=FILL_AREA_STYLE_COLOUR('',#519);
#446=CIRCLE('',#520,1.4);
#447=FILL_AREA_STYLE_COLOUR('',#521);
#448=CIRCLE('',#522,2.0);
#449=FILL_AREA_STYLE_COLOUR('',#523);
#450=CIRCLE('',#524,2.0);
#451=FILL_AREA_STYLE_COLOUR('',#525);
#452=CIRCLE('',#526,1.425);
#453=FILL_AREA_STYLE_COLOUR('',#527);
#454=CIRCLE('',#528,1.425);
#455=FILL_AREA_STYLE_COLOUR('',#529);
#456=COLOUR_RGB('',0.800000011920929,0.800000011920929,0.800000011920929);
#457=CARTESIAN_POINT('',(-1.5,1.77917125741049E-48,-20.5662465970934));
#458=CARTESIAN_POINT('',(1.5,-2.32619533729113E-48,-20.5662465970934));
#459=AXIS2_PLACEMENT_3D('',#530,#531,#532);
#460=CARTESIAN_POINT('',(1.25931940328028E-15,1.5,-20.5662465970934));
#461=AXIS2_PLACEMENT_3D('',#533,#534,#535);
#462=AXIS2_PLACEMENT_3D('',#536,#537,#538);
#463=COLOUR_RGB('',0.800000011920929,0.800000011920929,0.800000011920929);
#464=CARTESIAN_POINT('',(1.22870323330159E-15,1.5,-20.0662465970934));
#465=CARTESIAN_POINT('',(1.06031429841883E-15,1.5,-20.3162465970934));
#466=VECTOR('',#539,1.0);
#467=CARTESIAN_POINT('',(1.4124002531737E-15,-1.5,-20.0662465970934));
#468=AXIS2_PLACEMENT_3D('',#540,#541,#542);
#469=CARTESIAN_POINT('',(1.44301642315238E-15,-1.5,-20.5662465970934));
#470=CARTESIAN_POINT('',(1.42770833816304E-15,-1.5,-20.3162465970934));
#471=VECTOR('',#543,1.0);
#472=AXIS2_PLACEMENT_3D('',#544,#545,#546);
#473=COLOUR_RGB('',0.800000011920929,0.800000011920929,0.800000011920929);
#474=AXIS2_PLACEMENT_3D('',#547,#548,#549);
#475=COLOUR_RGB('',0.800000011920929,0.800000011920929,0.800000011920929);
#476=AXIS2_PLACEMENT_3D('',#550,#551,#552);
#477=COLOUR_RGB('',0.800000011920929,0.800000011920929,0.800000011920929);
#478=COLOUR_RGB('',0.498039215803146,0.498039215803146,0.498039215803146);
#479=CARTESIAN_POINT('',(1.26521114068977E-16,1.425,-2.06624659709339));
#480=CARTESIAN_POINT('',(1.22870323330159E-15,1.425,-20.0662465970934));
#481=CARTESIAN_POINT('',(5.03100004806788E-16,1.425,-11.0662465970934));
#482=VECTOR('',#553,1.0);
#483=CARTESIAN_POINT('',(1.425,1.74512168878498E-16,-2.06624659709339));
#484=AXIS2_PLACEMENT_3D('',#554,#555,#556);
#485=CARTESIAN_POINT('',(3.01033282947474E-16,-1.425,-2.06624659709339));
#486=AXIS2_PLACEMENT_3D('',#557,#558,#559);
#487=CARTESIAN_POINT('',(1.40321540218009E-15,-1.425,-20.0662465970934));
#488=CARTESIAN_POINT('',(8.52124342563783E-16,-1.425,-11.0662465970934));
#489=VECTOR('',#560,1.0);
#490=AXIS2_PLACEMENT_3D('',#561,#562,#563);
#491=COLOUR_RGB('',0.498039215803146,0.498039215803146,0.498039215803146);
#492=CARTESIAN_POINT('',(2.0,2.44929359829471E-16,1.22464679914735E-16));
#493=AXIS2_PLACEMENT_3D('',#564,#565,#566);
#494=CARTESIAN_POINT('',(2.44929359829471E-16,-2.0,1.49975978266186E-32));
#495=AXIS2_PLACEMENT_3D('',#567,#568,#569);
#496=CARTESIAN_POINT('',(-2.0,-2.44929359829471E-16,-1.22464679914735E-16));
#497=AXIS2_PLACEMENT_3D('',#570,#571,#572);
#498=CARTESIAN_POINT('',(-1.425,-1.74512168878498E-16,-2.06624659709339));
#499=AXIS2_PLACEMENT_3D('',#573,#574,#575);
#500=AXIS2_PLACEMENT_3D('',#576,#577,#578);
#501=COLOUR_RGB('',0.498039215803146,0.498039215803146,0.498039215803146);
#502=CARTESIAN_POINT('',(-2.28603308025131E-15,2.0,37.3337534029066));
#503=CARTESIAN_POINT('',(0.0,2.0,0.0));
#504=CARTESIAN_POINT('',(-1.38794589995513E-15,2.0,18.6668767014533));
#505=VECTOR('',#579,1.0);
#506=CARTESIAN_POINT('',(-2.04110372042184E-15,-2.0,37.3337534029066));
#507=AXIS2_PLACEMENT_3D('',#580,#581,#582);
#508=CARTESIAN_POINT('',(-8.98087180296184E-16,-2.0,18.6668767014533));
#509=VECTOR('',#583,1.0);
#510=AXIS2_PLACEMENT_3D('',#584,#585,#586);
#511=COLOUR_RGB('',0.498039215803146,0.498039215803146,0.498039215803146);
#512=CARTESIAN_POINT('',(-2.32277248422573E-15,1.4,37.9337534029066));
#513=CARTESIAN_POINT('',(-2.51259273809357E-15,1.7,37.6337534029066));
#514=VECTOR('',#587,1.0);
#515=CARTESIAN_POINT('',(-2.1513219323451E-15,-1.4,37.9337534029066));
#516=AXIS2_PLACEMENT_3D('',#588,#589,#590);
#517=CARTESIAN_POINT('',(-2.09621282638347E-15,-1.7,37.6337534029066));
#518=VECTOR('',#591,1.0);
#519=COLOUR_RGB('',0.498039215803146,0.498039215803146,0.498039215803146);
#520=AXIS2_PLACEMENT_3D('',#592,#593,#594);
#521=COLOUR_RGB('',0.498039215803146,0.498039215803146,0.498039215803146);
#522=AXIS2_PLACEMENT_3D('',#595,#596,#597);
#523=COLOUR_RGB('',0.498039215803146,0.498039215803146,0.498039215803146);
#524=AXIS2_PLACEMENT_3D('',#598,#599,#600);
#525=COLOUR_RGB('',0.498039215803146,0.498039215803146,0.498039215803146);
#526=AXIS2_PLACEMENT_3D('',#601,#602,#603);
#527=COLOUR_RGB('',0.498039215803146,0.498039215803146,0.498039215803146);
#528=AXIS2_PLACEMENT_3D('',#604,#605,#606);
#529=COLOUR_RGB('',0.498039215803146,0.498039215803146,0.498039215803146);
#530=CARTESIAN_POINT('',(1.25931940328028E-15,0.0,-20.5662465970934));
#531=DIRECTION('',(-7.49879891330929E-33,-1.0,1.22464679914735E-16));
#532=DIRECTION('',(0.0,1.22464679914735E-16,1.0));
#533=CARTESIAN_POINT('',(1.25931940328028E-15,0.0,-20.5662465970934));
#534=DIRECTION('',(6.12323399573676E-17,0.0,-1.0));
#535=DIRECTION('',(0.0,1.0,0.0));
#536=CARTESIAN_POINT('',(1.25931940328028E-15,0.0,-20.5662465970934));
#537=DIRECTION('',(6.12323399573676E-17,0.0,-1.0));
#538=DIRECTION('',(0.0,1.0,0.0));
#539=DIRECTION('',(6.12323399573676E-17,0.0,-1.0));
#540=CARTESIAN_POINT('',(1.22870323330159E-15,0.0,-20.0662465970934));
#541=DIRECTION('',(6.12323399573676E-17,0.0,-1.0));
#542=DIRECTION('',(0.0,1.0,0.0));
#543=DIRECTION('',(-6.12323399573676E-17,-0.0,1.0));
#544=CARTESIAN_POINT('',(1.25931940328028E-15,0.0,-20.5662465970934));
#545=DIRECTION('',(6.12323399573676E-17,0.0,-1.0));
#546=DIRECTION('',(0.0,1.0,0.0));
#547=CARTESIAN_POINT('',(1.22870323330159E-15,0.0,-20.0662465970934));
#548=DIRECTION('',(6.12323399573676E-17,0.0,-1.0));
#549=DIRECTION('',(0.0,1.0,0.0));
#550=CARTESIAN_POINT('',(1.25931940328028E-15,0.0,-20.5662465970934));
#551=DIRECTION('',(6.12323399573676E-17,0.0,-1.0));
#552=DIRECTION('',(0.0,1.0,0.0));
#553=DIRECTION('',(6.12323399573677E-17,0.0,-1.0));
#554=CARTESIAN_POINT('',(1.26521114068977E-16,0.0,-2.06624659709339));
#555=DIRECTION('',(6.12323399573676E-17,0.0,-1.0));
#556=DIRECTION('',(0.0,1.0,0.0));
#557=CARTESIAN_POINT('',(1.26521114068977E-16,0.0,-2.06624659709339));
#558=DIRECTION('',(6.12323399573676E-17,0.0,-1.0));
#559=DIRECTION('',(0.0,1.0,0.0));
#560=DIRECTION('',(-6.12323399573677E-17,-0.0,1.0));
#561=CARTESIAN_POINT('',(1.22870323330159E-15,0.0,-20.0662465970934));
#562=DIRECTION('',(6.12323399573676E-17,0.0,-1.0));
#563=DIRECTION('',(0.0,1.0,0.0));
#564=CARTESIAN_POINT('',(5.425,6.64370888537439E-16,-2.06624659709339));
#565=DIRECTION('',(1.22464679914735E-16,-1.0,7.49879891330929E-33));
#566=DIRECTION('',(1.0,1.22464679914735E-16,6.12323399573677E-17));
#567=CARTESIAN_POINT('',(0.0,0.0,0.0));
#568=DIRECTION('',(6.12323399573677E-17,0.0,-1.0));
#569=DIRECTION('',(0.0,1.0,0.0));
#570=CARTESIAN_POINT('',(0.0,0.0,0.0));
#571=DIRECTION('',(6.12323399573677E-17,0.0,-1.0));
#572=DIRECTION('',(0.0,1.0,0.0));
#573=CARTESIAN_POINT('',(-5.425,-6.64370888537439E-16,-2.06624659709339));
#574=DIRECTION('',(1.22464679914735E-16,-1.0,7.49879891330929E-33));
#575=DIRECTION('',(-1.0,-1.22464679914735E-16,-6.12323399573677E-17));
#576=CARTESIAN_POINT('',(1.26521114068977E-16,0.0,-2.06624659709339));
#577=DIRECTION('',(6.12323399573676E-17,0.0,-1.0));
#578=DIRECTION('',(0.0,1.0,0.0));
#579=DIRECTION('',(6.12323399573677E-17,0.0,-1.0));
#580=CARTESIAN_POINT('',(-2.28603308025131E-15,0.0,37.3337534029066));
#581=DIRECTION('',(6.12323399573677E-17,0.0,-1.0));
#582=DIRECTION('',(0.0,1.0,0.0));
#583=DIRECTION('',(-6.12323399573677E-17,-0.0,1.0));
#584=CARTESIAN_POINT('',(0.0,0.0,0.0));
#585=DIRECTION('',(6.12323399573677E-17,0.0,-1.0));
#586=DIRECTION('',(0.0,1.0,0.0));
#587=DIRECTION('',(-4.32978028117741E-17,0.707106781186545,-0.70710678118655));
#588=CARTESIAN_POINT('',(-2.32277248422573E-15,0.0,37.9337534029066));
#589=DIRECTION('',(6.12323399573677E-17,0.0,-1.0));
#590=DIRECTION('',(0.0,1.0,0.0));
#591=DIRECTION('',(-1.29893408435324E-16,0.707106781186545,0.70710678118655));
#592=CARTESIAN_POINT('',(-2.32277248422573E-15,0.0,37.9337534029066));
#593=DIRECTION('',(6.12323399573677E-17,0.0,-1.0));
#594=DIRECTION('',(0.0,1.0,0.0));
#595=CARTESIAN_POINT('',(-2.28603308025131E-15,0.0,37.3337534029066));
#596=DIRECTION('',(6.12323399573677E-17,0.0,-1.0));
#597=DIRECTION('',(0.0,1.0,0.0));
#598=CARTESIAN_POINT('',(0.0,0.0,0.0));
#599=DIRECTION('',(6.12323399573677E-17,0.0,-1.0));
#600=DIRECTION('',(0.0,1.0,0.0));
#601=CARTESIAN_POINT('',(1.26521114068977E-16,0.0,-2.06624659709339));
#602=DIRECTION('',(6.12323399573676E-17,0.0,-1.0));
#603=DIRECTION('',(0.0,1.0,0.0));
#604=CARTESIAN_POINT('',(1.22870323330159E-15,0.0,-20.0662465970934));
#605=DIRECTION('',(6.12323399573676E-17,0.0,-1.0));
#606=DIRECTION('',(0.0,1.0,0.0));
#607=DIRECTION('',(0.0,0.0,1.0));
#608=DIRECTION('',(1.0,0.0,0.0));
#609=CARTESIAN_POINT('',(0.0,0.0,37.933753));
#610=AXIS2_PLACEMENT_3D('PCS', #609,#607,#608);
#611=CARTESIAN_POINT('',(0.0,0.0,0.000000));
#612=AXIS2_PLACEMENT_3D('MCS', #611,#607,#608);
#613=CARTESIAN_POINT('',(0.0,0.0,-22.066247));
#614=AXIS2_PLACEMENT_3D('CIP', #613,#607,#608);
ENDSEC;
END-ISO-10303-21;
