ISO-10303-21;
HEADER;
FILE_DESCRIPTION(('STEP AP214'),'1');
FILE_NAME('Zeichnung3E43.stp','2022-07-28T07:29:12',(' '),(' '),'Spatial InterOp 3D',' ',' ');
FILE_SCHEMA(('AUTOMOTIVE_DESIGN { 1 0 10303 214 1 1 1 1 }'));
ENDSEC;
DATA;
#1=MECHANICAL_DESIGN_GEOMETRIC_PRESENTATION_REPRESENTATION(' ',(#12,#13,#14,#15,#16,#17,#18,#19,#20,#21,#22,#23,#24,#25,#26,#27,#28,#29),#8);
#2=PRODUCT_DEFINITION_CONTEXT('',#30,'design');
#3=APPLICATION_PROTOCOL_DEFINITION('INTERNATIONAL STANDARD','automotive_design',1994,#30);
#4=PRODUCT_CATEGORY_RELATIONSHIP('NONE','NONE',#31,#32);
#5=SHAPE_DEFINITION_REPRESENTATION(#33,#34);
#6=SHAPE_DEFINITION_REPRESENTATION(#33,#35);
#7=SHAPE_DEFINITION_REPRESENTATION(#33,#36);
#8= (GEOMETRIC_REPRESENTATION_CONTEXT(3)GLOBAL_UNCERTAINTY_ASSIGNED_CONTEXT((#39))GLOBAL_UNIT_ASSIGNED_CONTEXT((#41,#42,#43))REPRESENTATION_CONTEXT('NONE','WORKSPACE'));
#12=STYLED_ITEM('',(#45),#46);
#13=STYLED_ITEM('',(#47),#48);
#14=STYLED_ITEM('',(#49),#50);
#15=STYLED_ITEM('',(#51),#52);
#16=STYLED_ITEM('',(#53),#54);
#17=STYLED_ITEM('',(#55),#56);
#18=STYLED_ITEM('',(#57),#58);
#19=STYLED_ITEM('',(#59),#60);
#20=STYLED_ITEM('',(#61),#62);
#21=STYLED_ITEM('',(#63),#64);
#22=STYLED_ITEM('',(#65),#66);
#23=STYLED_ITEM('',(#67),#68);
#24=STYLED_ITEM('',(#69),#70);
#25=STYLED_ITEM('',(#71),#72);
#26=STYLED_ITEM('',(#73),#74);
#27=STYLED_ITEM('',(#75),#76);
#28=STYLED_ITEM('',(#77),#78);
#29=STYLED_ITEM('',(#79),#80);
#30=APPLICATION_CONTEXT(' ');
#31=PRODUCT_CATEGORY('part','NONE');
#32=PRODUCT_RELATED_PRODUCT_CATEGORY('detail',' ',(#81));
#33=PRODUCT_DEFINITION_SHAPE('NONE','NONE',#82);
#34=ADVANCED_BREP_SHAPE_REPRESENTATION('1',(#83,#84),#8);
#35=ADVANCED_BREP_SHAPE_REPRESENTATION('2',(#85,#86),#8);
#36=GEOMETRICALLY_BOUNDED_SURFACE_SHAPE_REPRESENTATION('3',(#87,#88),#8);
#39=UNCERTAINTY_MEASURE_WITH_UNIT(LENGTH_MEASURE(1.0E-06),#41,'','');
#41= (CONVERSION_BASED_UNIT('MILLIMETRE',#91)LENGTH_UNIT()NAMED_UNIT(#94));
#42= (NAMED_UNIT(#96)PLANE_ANGLE_UNIT()SI_UNIT($,.RADIAN.));
#43= (NAMED_UNIT(#96)SOLID_ANGLE_UNIT()SI_UNIT($,.STERADIAN.));
#45=PRESENTATION_STYLE_ASSIGNMENT((#102));
#46=COMPOSITE_CURVE('',(#103),.U.);
#47=PRESENTATION_STYLE_ASSIGNMENT((#104));
#48=COMPOSITE_CURVE('',(#105,#106,#107,#108,#109,#110,#111),.U.);
#49=PRESENTATION_STYLE_ASSIGNMENT((#112));
#50=ADVANCED_FACE('',(#113),#114,.T.);
#51=PRESENTATION_STYLE_ASSIGNMENT((#115));
#52=ADVANCED_FACE('',(#116),#117,.T.);
#53=PRESENTATION_STYLE_ASSIGNMENT((#118));
#54=ADVANCED_FACE('',(#119),#120,.T.);
#55=PRESENTATION_STYLE_ASSIGNMENT((#121));
#56=ADVANCED_FACE('',(#122),#123,.T.);
#57=PRESENTATION_STYLE_ASSIGNMENT((#124));
#58=ADVANCED_FACE('',(#125),#126,.T.);
#59=PRESENTATION_STYLE_ASSIGNMENT((#127));
#60=ADVANCED_FACE('',(#128),#129,.T.);
#61=PRESENTATION_STYLE_ASSIGNMENT((#130));
#62=ADVANCED_FACE('',(#131),#132,.T.);
#63=PRESENTATION_STYLE_ASSIGNMENT((#133));
#64=ADVANCED_FACE('',(#134),#135,.T.);
#65=PRESENTATION_STYLE_ASSIGNMENT((#136));
#66=ADVANCED_FACE('',(#137,#138),#139,.T.);
#67=PRESENTATION_STYLE_ASSIGNMENT((#140));
#68=COMPOSITE_CURVE('',(#141,#142,#143,#144,#145,#146),.U.);
#69=PRESENTATION_STYLE_ASSIGNMENT((#147));
#70=ADVANCED_FACE('',(#148),#149,.T.);
#71=PRESENTATION_STYLE_ASSIGNMENT((#150));
#72=ADVANCED_FACE('',(#151),#152,.T.);
#73=PRESENTATION_STYLE_ASSIGNMENT((#153));
#74=ADVANCED_FACE('',(#154),#155,.T.);
#75=PRESENTATION_STYLE_ASSIGNMENT((#156));
#76=ADVANCED_FACE('',(#157),#158,.T.);
#77=PRESENTATION_STYLE_ASSIGNMENT((#159));
#78=ADVANCED_FACE('',(#160),#161,.T.);
#79=PRESENTATION_STYLE_ASSIGNMENT((#162));
#80=ADVANCED_FACE('',(#163),#164,.T.);
#81=PRODUCT('1','','PART--DESC',(#165));
#82=PRODUCT_DEFINITION('','NONE',#166,#2);
#83=MANIFOLD_SOLID_BREP('1',#167);
#84=AXIS2_PLACEMENT_3D('',#168,#169,#170);
#85=MANIFOLD_SOLID_BREP('2',#171);
#86=AXIS2_PLACEMENT_3D('',#172,#173,#174);
#87=GEOMETRIC_SET('3',(#46,#48,#68));
#88=AXIS2_PLACEMENT_3D('',#175,#176,#177);
#91=LENGTH_MEASURE_WITH_UNIT(LENGTH_MEASURE(1.0),#178);
#94=DIMENSIONAL_EXPONENTS(1.0,0.0,0.0,0.0,0.0,0.0,0.0);
#96=DIMENSIONAL_EXPONENTS(0.0,0.0,0.0,0.0,0.0,0.0,0.0);
#102=CURVE_STYLE('',#179,POSITIVE_LENGTH_MEASURE(1.0E-06),#180);
#103=COMPOSITE_CURVE_SEGMENT(.CONTINUOUS.,.T.,#181);
#104=CURVE_STYLE('',#182,POSITIVE_LENGTH_MEASURE(1.0E-06),#183);
#105=COMPOSITE_CURVE_SEGMENT(.CONTINUOUS.,.T.,#184);
#106=COMPOSITE_CURVE_SEGMENT(.CONTINUOUS.,.T.,#185);
#107=COMPOSITE_CURVE_SEGMENT(.CONTINUOUS.,.T.,#186);
#108=COMPOSITE_CURVE_SEGMENT(.CONTINUOUS.,.T.,#187);
#109=COMPOSITE_CURVE_SEGMENT(.CONTINUOUS.,.T.,#188);
#110=COMPOSITE_CURVE_SEGMENT(.CONTINUOUS.,.T.,#189);
#111=COMPOSITE_CURVE_SEGMENT(.CONTINUOUS.,.T.,#190);
#112=SURFACE_STYLE_USAGE(.BOTH.,#191);
#113=FACE_OUTER_BOUND('',#192,.T.);
#114=CYLINDRICAL_SURFACE('',#193,6.99999999999997);
#115=SURFACE_STYLE_USAGE(.BOTH.,#194);
#116=FACE_OUTER_BOUND('',#195,.T.);
#117=CONICAL_SURFACE('',#196,6.39999999999996,0.78539816339746);
#118=SURFACE_STYLE_USAGE(.BOTH.,#197);
#119=FACE_OUTER_BOUND('',#198,.T.);
#120=CYLINDRICAL_SURFACE('',#199,6.90000000000001);
#121=SURFACE_STYLE_USAGE(.BOTH.,#200);
#122=FACE_OUTER_BOUND('',#201,.T.);
#123=CYLINDRICAL_SURFACE('',#202,6.90000000000001);
#124=SURFACE_STYLE_USAGE(.BOTH.,#203);
#125=FACE_OUTER_BOUND('',#204,.T.);
#126=PLANE('',#205);
#127=SURFACE_STYLE_USAGE(.BOTH.,#206);
#128=FACE_OUTER_BOUND('',#207,.T.);
#129=PLANE('',#208);
#130=SURFACE_STYLE_USAGE(.BOTH.,#209);
#131=FACE_OUTER_BOUND('',#210,.T.);
#132=CONICAL_SURFACE('',#211,6.39999999999996,0.78539816339746);
#133=SURFACE_STYLE_USAGE(.BOTH.,#212);
#134=FACE_OUTER_BOUND('',#213,.T.);
#135=CYLINDRICAL_SURFACE('',#214,6.99999999999997);
#136=SURFACE_STYLE_USAGE(.BOTH.,#215);
#137=FACE_BOUND('',#216,.T.);
#138=FACE_OUTER_BOUND('',#217,.T.);
#139=PLANE('',#218);
#140=CURVE_STYLE('',#219,POSITIVE_LENGTH_MEASURE(1.0E-06),#220);
#141=COMPOSITE_CURVE_SEGMENT(.CONTINUOUS.,.T.,#221);
#142=COMPOSITE_CURVE_SEGMENT(.CONTINUOUS.,.T.,#222);
#143=COMPOSITE_CURVE_SEGMENT(.CONTINUOUS.,.T.,#223);
#144=COMPOSITE_CURVE_SEGMENT(.CONTINUOUS.,.T.,#224);
#145=COMPOSITE_CURVE_SEGMENT(.CONTINUOUS.,.T.,#225);
#146=COMPOSITE_CURVE_SEGMENT(.CONTINUOUS.,.T.,#226);
#147=SURFACE_STYLE_USAGE(.BOTH.,#227);
#148=FACE_OUTER_BOUND('',#228,.T.);
#149=CONICAL_SURFACE('',#229,6.86000000000001,0.785398163397448);
#150=SURFACE_STYLE_USAGE(.BOTH.,#230);
#151=FACE_OUTER_BOUND('',#231,.T.);
#152=CYLINDRICAL_SURFACE('',#232,6.99999999999999);
#153=SURFACE_STYLE_USAGE(.BOTH.,#233);
#154=FACE_OUTER_BOUND('',#234,.T.);
#155=PLANE('',#235);
#156=SURFACE_STYLE_USAGE(.BOTH.,#236);
#157=FACE_OUTER_BOUND('',#237,.T.);
#158=CYLINDRICAL_SURFACE('',#238,6.99999999999999);
#159=SURFACE_STYLE_USAGE(.BOTH.,#239);
#160=FACE_OUTER_BOUND('',#240,.T.);
#161=CONICAL_SURFACE('',#241,6.86000000000001,0.785398163397448);
#162=SURFACE_STYLE_USAGE(.BOTH.,#242);
#163=FACE_OUTER_BOUND('',#243,.T.);
#164=PLANE('',#244);
#165=PRODUCT_CONTEXT('',#30,'mechanical');
#166=PRODUCT_DEFINITION_FORMATION_WITH_SPECIFIED_SOURCE(' ','NONE',#81,.NOT_KNOWN.);
#167=CLOSED_SHELL('',(#50,#52,#54,#56,#58,#60,#62,#64,#66));
#168=CARTESIAN_POINT('',(0.0,0.0,0.0));
#169=DIRECTION('',(0.0,0.0,1.0));
#170=DIRECTION('',(1.0,0.0,0.0));
#171=CLOSED_SHELL('',(#70,#72,#74,#76,#78,#80));
#172=CARTESIAN_POINT('',(0.0,0.0,0.0));
#173=DIRECTION('',(0.0,0.0,1.0));
#174=DIRECTION('',(1.0,0.0,0.0));
#175=CARTESIAN_POINT('',(0.0,0.0,0.0));
#176=DIRECTION('',(0.0,0.0,1.0));
#177=DIRECTION('',(1.0,0.0,0.0));
#178= (NAMED_UNIT(#94)LENGTH_UNIT()SI_UNIT(.MILLI.,.METRE.));
#179=DRAUGHTING_PRE_DEFINED_CURVE_FONT('continuous');
#180=COLOUR_RGB('',0.0,1.0,0.0);
#181=TRIMMED_CURVE('',#246,(PARAMETER_VALUE(0.0)),(PARAMETER_VALUE(6.99999999999997)),.T.,.UNSPECIFIED.);
#182=DRAUGHTING_PRE_DEFINED_CURVE_FONT('continuous');
#183=COLOUR_RGB('',0.498039215803146,0.498039215803146,0.498039215803146);
#184=TRIMMED_CURVE('',#247,(PARAMETER_VALUE(0.0)),(PARAMETER_VALUE(45.8)),.T.,.UNSPECIFIED.);
#185=TRIMMED_CURVE('',#248,(PARAMETER_VALUE(0.0)),(PARAMETER_VALUE(1.69705627484772)),.T.,.UNSPECIFIED.);
#186=TRIMMED_CURVE('',#249,(PARAMETER_VALUE(0.0)),(PARAMETER_VALUE(5.79999999999995)),.T.,.UNSPECIFIED.);
#187=TRIMMED_CURVE('',#250,(PARAMETER_VALUE(0.0)),(PARAMETER_VALUE(57.0)),.T.,.UNSPECIFIED.);
#188=TRIMMED_CURVE('',#251,(PARAMETER_VALUE(0.0)),(PARAMETER_VALUE(6.90000000000001)),.T.,.UNSPECIFIED.);
#189=TRIMMED_CURVE('',#252,(PARAMETER_VALUE(0.0)),(PARAMETER_VALUE(10.0)),.T.,.UNSPECIFIED.);
#190=TRIMMED_CURVE('',#253,(PARAMETER_VALUE(0.0)),(PARAMETER_VALUE(0.0999999999999659)),.T.,.UNSPECIFIED.);
#191=SURFACE_SIDE_STYLE('',(#254));
#192=EDGE_LOOP('',(#255,#256,#257,#258));
#193=AXIS2_PLACEMENT_3D('',#259,#260,#261);
#194=SURFACE_SIDE_STYLE('',(#262));
#195=EDGE_LOOP('',(#263,#264,#265,#266));
#196=AXIS2_PLACEMENT_3D('',#267,#268,#269);
#197=SURFACE_SIDE_STYLE('',(#270));
#198=EDGE_LOOP('',(#271,#272,#273,#274));
#199=AXIS2_PLACEMENT_3D('',#275,#276,#277);
#200=SURFACE_SIDE_STYLE('',(#278));
#201=EDGE_LOOP('',(#279,#280,#281,#282));
#202=AXIS2_PLACEMENT_3D('',#283,#284,#285);
#203=SURFACE_SIDE_STYLE('',(#286));
#204=EDGE_LOOP('',(#287,#288));
#205=AXIS2_PLACEMENT_3D('',#289,#290,#291);
#206=SURFACE_SIDE_STYLE('',(#292));
#207=EDGE_LOOP('',(#293,#294));
#208=AXIS2_PLACEMENT_3D('',#295,#296,#297);
#209=SURFACE_SIDE_STYLE('',(#298));
#210=EDGE_LOOP('',(#299,#300,#301,#302));
#211=AXIS2_PLACEMENT_3D('',#303,#304,#305);
#212=SURFACE_SIDE_STYLE('',(#306));
#213=EDGE_LOOP('',(#307,#308,#309,#310));
#214=AXIS2_PLACEMENT_3D('',#311,#312,#313);
#215=SURFACE_SIDE_STYLE('',(#314));
#216=EDGE_LOOP('',(#315,#316));
#217=EDGE_LOOP('',(#317,#318));
#218=AXIS2_PLACEMENT_3D('',#319,#320,#321);
#219=DRAUGHTING_PRE_DEFINED_CURVE_FONT('continuous');
#220=COLOUR_RGB('',0.0,0.0,1.0);
#221=TRIMMED_CURVE('',#322,(PARAMETER_VALUE(0.0)),(PARAMETER_VALUE(6.72000000000003)),.T.,.UNSPECIFIED.);
#222=TRIMMED_CURVE('',#323,(PARAMETER_VALUE(0.0)),(PARAMETER_VALUE(0.395979797464428)),.T.,.UNSPECIFIED.);
#223=TRIMMED_CURVE('',#324,(PARAMETER_VALUE(0.0)),(PARAMETER_VALUE(25.72)),.T.,.UNSPECIFIED.);
#224=TRIMMED_CURVE('',#325,(PARAMETER_VALUE(0.0)),(PARAMETER_VALUE(0.0999999999999659)),.T.,.UNSPECIFIED.);
#225=TRIMMED_CURVE('',#326,(PARAMETER_VALUE(0.0)),(PARAMETER_VALUE(6.90000000000001)),.T.,.UNSPECIFIED.);
#226=TRIMMED_CURVE('',#327,(PARAMETER_VALUE(0.0)),(PARAMETER_VALUE(25.9999999999999)),.T.,.UNSPECIFIED.);
#227=SURFACE_SIDE_STYLE('',(#328));
#228=EDGE_LOOP('',(#329,#330,#331,#332));
#229=AXIS2_PLACEMENT_3D('',#333,#334,#335);
#230=SURFACE_SIDE_STYLE('',(#336));
#231=EDGE_LOOP('',(#337,#338,#339,#340));
#232=AXIS2_PLACEMENT_3D('',#341,#342,#343);
#233=SURFACE_SIDE_STYLE('',(#344));
#234=EDGE_LOOP('',(#345,#346));
#235=AXIS2_PLACEMENT_3D('',#347,#348,#349);
#236=SURFACE_SIDE_STYLE('',(#350));
#237=EDGE_LOOP('',(#351,#352,#353,#354));
#238=AXIS2_PLACEMENT_3D('',#355,#356,#357);
#239=SURFACE_SIDE_STYLE('',(#358));
#240=EDGE_LOOP('',(#359,#360,#361,#362));
#241=AXIS2_PLACEMENT_3D('',#363,#364,#365);
#242=SURFACE_SIDE_STYLE('',(#366));
#243=EDGE_LOOP('',(#367,#368));
#244=AXIS2_PLACEMENT_3D('',#369,#370,#371);
#246=LINE('',#372,#373);
#247=LINE('',#374,#375);
#248=LINE('',#376,#377);
#249=LINE('',#378,#379);
#250=LINE('',#380,#381);
#251=LINE('',#382,#383);
#252=LINE('',#384,#385);
#253=LINE('',#386,#387);
#254=SURFACE_STYLE_FILL_AREA(#388);
#255=ORIENTED_EDGE('',*,*,#389,.F.);
#256=ORIENTED_EDGE('',*,*,#390,.T.);
#257=ORIENTED_EDGE('',*,*,#391,.F.);
#258=ORIENTED_EDGE('',*,*,#392,.F.);
#259=CARTESIAN_POINT('',(-1.27975590510899E-15,2.8421709430404E-14,20.9));
#260=DIRECTION('',(6.12323399573677E-17,0.0,-1.0));
#261=DIRECTION('',(0.0,1.0,0.0));
#262=SURFACE_STYLE_FILL_AREA(#393);
#263=ORIENTED_EDGE('',*,*,#394,.F.);
#264=ORIENTED_EDGE('',*,*,#395,.T.);
#265=ORIENTED_EDGE('',*,*,#396,.F.);
#266=ORIENTED_EDGE('',*,*,#390,.F.);
#267=CARTESIAN_POINT('',(-2.71871589410713E-15,2.8421709430404E-14,44.4));
#268=DIRECTION('',(6.12323399573677E-17,-0.0,-1.0));
#269=DIRECTION('',(0.0,1.0,0.0));
#270=SURFACE_STYLE_FILL_AREA(#397);
#271=ORIENTED_EDGE('',*,*,#398,.F.);
#272=ORIENTED_EDGE('',*,*,#399,.T.);
#273=ORIENTED_EDGE('',*,*,#400,.F.);
#274=ORIENTED_EDGE('',*,*,#401,.F.);
#275=CARTESIAN_POINT('',(4.28626379701574E-16,2.8421709430404E-14,-7.0));
#276=DIRECTION('',(6.12323399573677E-17,0.0,-1.0));
#277=DIRECTION('',(0.0,1.0,0.0));
#278=SURFACE_STYLE_FILL_AREA(#402);
#279=ORIENTED_EDGE('',*,*,#398,.T.);
#280=ORIENTED_EDGE('',*,*,#403,.F.);
#281=ORIENTED_EDGE('',*,*,#400,.T.);
#282=ORIENTED_EDGE('',*,*,#404,.T.);
#283=CARTESIAN_POINT('',(4.28626379701574E-16,2.8421709430404E-14,-7.0));
#284=DIRECTION('',(6.12323399573677E-17,0.0,-1.0));
#285=DIRECTION('',(0.0,1.0,0.0));
#286=SURFACE_STYLE_FILL_AREA(#405);
#287=ORIENTED_EDGE('',*,*,#401,.T.);
#288=ORIENTED_EDGE('',*,*,#403,.T.);
#289=CARTESIAN_POINT('',(7.34788079488412E-16,3.45000000000003,-12.0));
#290=DIRECTION('',(6.12323399573677E-17,0.0,-1.0));
#291=DIRECTION('',(0.0,1.0,0.0));
#292=SURFACE_STYLE_FILL_AREA(#406);
#293=ORIENTED_EDGE('',*,*,#395,.F.);
#294=ORIENTED_EDGE('',*,*,#407,.F.);
#295=CARTESIAN_POINT('',(-2.75545529808155E-15,2.90000000000001,45.0));
#296=DIRECTION('',(-6.12323399573677E-17,0.0,1.0));
#297=DIRECTION('',(0.0,-1.0,0.0));
#298=SURFACE_STYLE_FILL_AREA(#408);
#299=ORIENTED_EDGE('',*,*,#394,.T.);
#300=ORIENTED_EDGE('',*,*,#409,.F.);
#301=ORIENTED_EDGE('',*,*,#396,.T.);
#302=ORIENTED_EDGE('',*,*,#407,.T.);
#303=CARTESIAN_POINT('',(-2.71871589410713E-15,2.8421709430404E-14,44.4));
#304=DIRECTION('',(6.12323399573677E-17,-0.0,-1.0));
#305=DIRECTION('',(0.0,1.0,0.0));
#306=SURFACE_STYLE_FILL_AREA(#410);
#307=ORIENTED_EDGE('',*,*,#389,.T.);
#308=ORIENTED_EDGE('',*,*,#411,.F.);
#309=ORIENTED_EDGE('',*,*,#391,.T.);
#310=ORIENTED_EDGE('',*,*,#409,.T.);
#311=CARTESIAN_POINT('',(-1.27975590510899E-15,2.8421709430404E-14,20.9));
#312=DIRECTION('',(6.12323399573677E-17,0.0,-1.0));
#313=DIRECTION('',(0.0,1.0,0.0));
#314=SURFACE_STYLE_FILL_AREA(#412);
#315=ORIENTED_EDGE('',*,*,#399,.F.);
#316=ORIENTED_EDGE('',*,*,#404,.F.);
#317=ORIENTED_EDGE('',*,*,#392,.T.);
#318=ORIENTED_EDGE('',*,*,#411,.T.);
#319=CARTESIAN_POINT('',(1.22464679914736E-16,6.95000000000002,-2.0));
#320=DIRECTION('',(6.12323399573677E-17,0.0,-1.0));
#321=DIRECTION('',(0.0,1.0,0.0));
#322=LINE('',#413,#414);
#323=LINE('',#415,#416);
#324=LINE('',#417,#418);
#325=LINE('',#419,#420);
#326=LINE('',#421,#422);
#327=LINE('',#423,#424);
#328=SURFACE_STYLE_FILL_AREA(#425);
#329=ORIENTED_EDGE('',*,*,#426,.F.);
#330=ORIENTED_EDGE('',*,*,#427,.T.);
#331=ORIENTED_EDGE('',*,*,#428,.F.);
#332=ORIENTED_EDGE('',*,*,#429,.F.);
#333=CARTESIAN_POINT('',(2.31825639078594E-15,2.8421709430404E-14,-37.86));
#334=DIRECTION('',(-6.12323399573677E-17,-0.0,1.0));
#335=DIRECTION('',(0.0,1.0,0.0));
#336=SURFACE_STYLE_FILL_AREA(#430);
#337=ORIENTED_EDGE('',*,*,#431,.F.);
#338=ORIENTED_EDGE('',*,*,#432,.T.);
#339=ORIENTED_EDGE('',*,*,#433,.F.);
#340=ORIENTED_EDGE('',*,*,#427,.F.);
#341=CARTESIAN_POINT('',(1.52223597134016E-15,2.8421709430404E-14,-24.86));
#342=DIRECTION('',(6.12323399573677E-17,0.0,-1.0));
#343=DIRECTION('',(0.0,1.0,0.0));
#344=SURFACE_STYLE_FILL_AREA(#434);
#345=ORIENTED_EDGE('',*,*,#432,.F.);
#346=ORIENTED_EDGE('',*,*,#435,.F.);
#347=CARTESIAN_POINT('',(7.34788079488412E-16,3.50000000000001,-12.0));
#348=DIRECTION('',(-6.12323399573677E-17,0.0,1.0));
#349=DIRECTION('',(0.0,-1.0,0.0));
#350=SURFACE_STYLE_FILL_AREA(#436);
#351=ORIENTED_EDGE('',*,*,#431,.T.);
#352=ORIENTED_EDGE('',*,*,#437,.F.);
#353=ORIENTED_EDGE('',*,*,#433,.T.);
#354=ORIENTED_EDGE('',*,*,#435,.T.);
#355=CARTESIAN_POINT('',(1.52223597134016E-15,2.8421709430404E-14,-24.86));
#356=DIRECTION('',(6.12323399573677E-17,0.0,-1.0));
#357=DIRECTION('',(0.0,1.0,0.0));
#358=SURFACE_STYLE_FILL_AREA(#438);
#359=ORIENTED_EDGE('',*,*,#426,.T.);
#360=ORIENTED_EDGE('',*,*,#439,.F.);
#361=ORIENTED_EDGE('',*,*,#428,.T.);
#362=ORIENTED_EDGE('',*,*,#437,.T.);
#363=CARTESIAN_POINT('',(2.31825639078594E-15,2.8421709430404E-14,-37.86));
#364=DIRECTION('',(-6.12323399573677E-17,-0.0,1.0));
#365=DIRECTION('',(0.0,1.0,0.0));
#366=SURFACE_STYLE_FILL_AREA(#440);
#367=ORIENTED_EDGE('',*,*,#429,.T.);
#368=ORIENTED_EDGE('',*,*,#439,.T.);
#369=CARTESIAN_POINT('',(2.32682891837997E-15,3.36000000000004,-37.9999999999999));
#370=DIRECTION('',(6.12323399573677E-17,-8.45884209238211E-15,-1.0));
#371=DIRECTION('',(5.17954694646433E-31,1.0,-8.45884209238211E-15));
#372=CARTESIAN_POINT('',(0.0,7.0,0.0));
#373=VECTOR('',#441,1.0);
#374=CARTESIAN_POINT('',(1.22464679914735E-16,7.0,-2.0));
#375=VECTOR('',#442,1.0);
#376=CARTESIAN_POINT('',(-2.68197649013271E-15,7.0,43.8));
#377=VECTOR('',#443,1.0);
#378=CARTESIAN_POINT('',(-2.75545529808155E-15,5.79999999999998,45.0));
#379=VECTOR('',#444,1.0);
#380=CARTESIAN_POINT('',(-2.75545529808155E-15,3.01980662698043E-14,45.0));
#381=VECTOR('',#445,1.0);
#382=CARTESIAN_POINT('',(7.34788079488412E-16,2.8421709430404E-14,-12.0));
#383=VECTOR('',#446,1.0);
#384=CARTESIAN_POINT('',(7.34788079488412E-16,6.90000000000003,-12.0));
#385=VECTOR('',#447,1.0);
#386=CARTESIAN_POINT('',(1.22464679914735E-16,6.90000000000003,-2.0));
#387=VECTOR('',#448,1.0);
#388=FILL_AREA_STYLE('',(#449));
#389=EDGE_CURVE('',#450,#451,#452,.T.);
#390=EDGE_CURVE('',#450,#453,#454,.T.);
#391=EDGE_CURVE('',#455,#453,#456,.T.);
#392=EDGE_CURVE('',#451,#455,#457,.T.);
#393=FILL_AREA_STYLE('',(#458));
#394=EDGE_CURVE('',#459,#450,#460,.T.);
#395=EDGE_CURVE('',#459,#461,#462,.T.);
#396=EDGE_CURVE('',#453,#461,#463,.T.);
#397=FILL_AREA_STYLE('',(#464));
#398=EDGE_CURVE('',#465,#466,#467,.T.);
#399=EDGE_CURVE('',#465,#468,#469,.T.);
#400=EDGE_CURVE('',#470,#468,#471,.T.);
#401=EDGE_CURVE('',#466,#470,#472,.T.);
#402=FILL_AREA_STYLE('',(#473));
#403=EDGE_CURVE('',#470,#466,#474,.T.);
#404=EDGE_CURVE('',#468,#465,#475,.T.);
#405=FILL_AREA_STYLE('',(#476));
#406=FILL_AREA_STYLE('',(#477));
#407=EDGE_CURVE('',#461,#459,#478,.T.);
#408=FILL_AREA_STYLE('',(#479));
#409=EDGE_CURVE('',#453,#450,#480,.T.);
#410=FILL_AREA_STYLE('',(#481));
#411=EDGE_CURVE('',#455,#451,#482,.T.);
#412=FILL_AREA_STYLE('',(#483));
#413=CARTESIAN_POINT('',(2.32682891837997E-15,2.75335310107039E-14,-37.9999999999999));
#414=VECTOR('',#484,1.0);
#415=CARTESIAN_POINT('',(2.32682891837997E-15,6.72000000000006,-38.0));
#416=VECTOR('',#485,1.0);
#417=CARTESIAN_POINT('',(2.30968386319191E-15,7.00000000000003,-37.72));
#418=VECTOR('',#486,1.0);
#419=CARTESIAN_POINT('',(7.34788079488412E-16,7.0,-12.0));
#420=VECTOR('',#487,1.0);
#421=CARTESIAN_POINT('',(7.34788079488412E-16,6.90000000000003,-12.0));
#422=VECTOR('',#488,1.0);
#423=CARTESIAN_POINT('',(7.34788079488412E-16,2.8421709430404E-14,-12.0));
#424=VECTOR('',#489,1.0);
#425=FILL_AREA_STYLE('',(#490));
#426=EDGE_CURVE('',#491,#492,#493,.T.);
#427=EDGE_CURVE('',#491,#494,#495,.T.);
#428=EDGE_CURVE('',#496,#494,#497,.T.);
#429=EDGE_CURVE('',#492,#496,#498,.T.);
#430=FILL_AREA_STYLE('',(#499));
#431=EDGE_CURVE('',#500,#491,#501,.T.);
#432=EDGE_CURVE('',#500,#502,#503,.T.);
#433=EDGE_CURVE('',#494,#502,#504,.T.);
#434=FILL_AREA_STYLE('',(#505));
#435=EDGE_CURVE('',#502,#500,#506,.T.);
#436=FILL_AREA_STYLE('',(#507));
#437=EDGE_CURVE('',#494,#491,#508,.T.);
#438=FILL_AREA_STYLE('',(#509));
#439=EDGE_CURVE('',#496,#492,#510,.T.);
#440=FILL_AREA_STYLE('',(#511));
#441=DIRECTION('',(0.0,-1.0,0.0));
#442=DIRECTION('',(-6.12323399573676E-17,0.0,1.0));
#443=DIRECTION('',(-4.32978028117742E-17,-0.707106781186556,0.707106781186539));
#444=DIRECTION('',(0.0,-1.0,0.0));
#445=DIRECTION('',(6.12323399573677E-17,-3.11641550771974E-17,-1.0));
#446=DIRECTION('',(0.0,1.0,0.0));
#447=DIRECTION('',(-6.12323399573676E-17,0.0,1.0));
#448=DIRECTION('',(0.0,1.0,0.0));
#449=FILL_AREA_STYLE_COLOUR('',#512);
#450=VERTEX_POINT('',#513);
#451=VERTEX_POINT('',#514);
#452=LINE('',#515,#516);
#453=VERTEX_POINT('',#517);
#454=CIRCLE('',#518,6.99999999999997);
#455=VERTEX_POINT('',#519);
#456=LINE('',#520,#521);
#457=CIRCLE('',#522,6.99999999999997);
#458=FILL_AREA_STYLE_COLOUR('',#523);
#459=VERTEX_POINT('',#524);
#460=LINE('',#525,#526);
#461=VERTEX_POINT('',#527);
#462=CIRCLE('',#528,5.79999999999995);
#463=LINE('',#529,#530);
#464=FILL_AREA_STYLE_COLOUR('',#531);
#465=VERTEX_POINT('',#532);
#466=VERTEX_POINT('',#533);
#467=LINE('',#534,#535);
#468=VERTEX_POINT('',#536);
#469=CIRCLE('',#537,6.90000000000001);
#470=VERTEX_POINT('',#538);
#471=LINE('',#539,#540);
#472=CIRCLE('',#541,6.90000000000001);
#473=FILL_AREA_STYLE_COLOUR('',#542);
#474=CIRCLE('',#543,6.90000000000001);
#475=CIRCLE('',#544,6.90000000000001);
#476=FILL_AREA_STYLE_COLOUR('',#545);
#477=FILL_AREA_STYLE_COLOUR('',#546);
#478=CIRCLE('',#547,5.79999999999995);
#479=FILL_AREA_STYLE_COLOUR('',#548);
#480=CIRCLE('',#549,6.99999999999997);
#481=FILL_AREA_STYLE_COLOUR('',#550);
#482=CIRCLE('',#551,6.99999999999997);
#483=FILL_AREA_STYLE_COLOUR('',#552);
#484=DIRECTION('',(5.28255070460497E-31,1.0,-8.45884209238211E-15));
#485=DIRECTION('',(-4.32978028117747E-17,0.707106781186548,0.707106781186548));
#486=DIRECTION('',(-6.12323399573677E-17,-1.10504313493017E-15,1.0));
#487=DIRECTION('',(0.0,-1.0,0.0));
#488=DIRECTION('',(0.0,-1.0,0.0));
#489=DIRECTION('',(6.12323399573677E-17,-3.41607084500049E-17,-1.0));
#490=FILL_AREA_STYLE_COLOUR('',#553);
#491=VERTEX_POINT('',#554);
#492=VERTEX_POINT('',#555);
#493=LINE('',#556,#557);
#494=VERTEX_POINT('',#558);
#495=CIRCLE('',#559,7.0);
#496=VERTEX_POINT('',#560);
#497=LINE('',#561,#562);
#498=CIRCLE('',#563,6.72000000000003);
#499=FILL_AREA_STYLE_COLOUR('',#564);
#500=VERTEX_POINT('',#565);
#501=LINE('',#566,#567);
#502=VERTEX_POINT('',#568);
#503=CIRCLE('',#569,6.99999999999997);
#504=LINE('',#570,#571);
#505=FILL_AREA_STYLE_COLOUR('',#572);
#506=CIRCLE('',#573,6.99999999999997);
#507=FILL_AREA_STYLE_COLOUR('',#574);
#508=CIRCLE('',#575,7.0);
#509=FILL_AREA_STYLE_COLOUR('',#576);
#510=CIRCLE('',#577,6.72000000000003);
#511=FILL_AREA_STYLE_COLOUR('',#578);
#512=COLOUR_RGB('',0.498039215803146,0.498039215803146,0.498039215803146);
#513=CARTESIAN_POINT('',(-2.68197649013271E-15,7.0,43.8));
#514=CARTESIAN_POINT('',(1.22464679914736E-16,7.0,-2.0));
#515=CARTESIAN_POINT('',(-2.13700866451213E-15,7.0,20.9));
#516=VECTOR('',#579,1.0);
#517=CARTESIAN_POINT('',(-1.82472373072956E-15,-6.99999999999994,43.8));
#518=AXIS2_PLACEMENT_3D('',#580,#581,#582);
#519=CARTESIAN_POINT('',(9.79717439317879E-16,-6.99999999999994,-2.0));
#520=CARTESIAN_POINT('',(-4.22503145705842E-16,-6.99999999999994,20.9));
#521=VECTOR('',#583,1.0);
#522=AXIS2_PLACEMENT_3D('',#584,#585,#586);
#523=COLOUR_RGB('',0.498039215803146,0.498039215803146,0.498039215803146);
#524=CARTESIAN_POINT('',(-2.75545529808155E-15,5.79999999999998,45.0));
#525=CARTESIAN_POINT('',(-3.50248984556143E-15,6.39999999999999,44.4));
#526=VECTOR('',#587,1.0);
#527=CARTESIAN_POINT('',(-2.04516015457609E-15,-5.79999999999993,45.0));
#528=AXIS2_PLACEMENT_3D('',#588,#589,#590);
#529=CARTESIAN_POINT('',(-1.93494194265283E-15,-6.39999999999993,44.4));
#530=VECTOR('',#591,1.0);
#531=COLOUR_RGB('',0.498039215803146,0.498039215803146,0.498039215803146);
#532=CARTESIAN_POINT('',(1.22464679914736E-16,6.90000000000003,-2.0));
#533=CARTESIAN_POINT('',(7.34788079488412E-16,6.90000000000003,-12.0));
#534=CARTESIAN_POINT('',(-4.163799117101E-16,6.90000000000003,-7.0));
#535=VECTOR('',#592,1.0);
#536=CARTESIAN_POINT('',(9.6747097132641E-16,-6.89999999999998,-2.0));
#537=AXIS2_PLACEMENT_3D('',#593,#594,#595);
#538=CARTESIAN_POINT('',(1.57979437090009E-15,-6.89999999999998,-12.0));
#539=CARTESIAN_POINT('',(1.27363267111325E-15,-6.89999999999998,-7.0));
#540=VECTOR('',#596,1.0);
#541=AXIS2_PLACEMENT_3D('',#597,#598,#599);
#542=COLOUR_RGB('',0.498039215803146,0.498039215803146,0.498039215803146);
#543=AXIS2_PLACEMENT_3D('',#600,#601,#602);
#544=AXIS2_PLACEMENT_3D('',#603,#604,#605);
#545=COLOUR_RGB('',0.498039215803146,0.498039215803146,0.498039215803146);
#546=COLOUR_RGB('',0.498039215803146,0.498039215803146,0.498039215803146);
#547=AXIS2_PLACEMENT_3D('',#606,#607,#608);
#548=COLOUR_RGB('',0.498039215803146,0.498039215803146,0.498039215803146);
#549=AXIS2_PLACEMENT_3D('',#609,#610,#611);
#550=COLOUR_RGB('',0.498039215803146,0.498039215803146,0.498039215803146);
#551=AXIS2_PLACEMENT_3D('',#612,#613,#614);
#552=COLOUR_RGB('',0.498039215803146,0.498039215803146,0.498039215803146);
#553=COLOUR_RGB('',0.800000011920929,0.800000011920929,0.800000011920929);
#554=CARTESIAN_POINT('',(2.30968386319191E-15,7.00000000000003,-37.72));
#555=CARTESIAN_POINT('',(2.32682891837997E-15,6.72000000000006,-38.0));
#556=CARTESIAN_POINT('',(1.47814868657085E-15,6.86000000000004,-37.86));
#557=VECTOR('',#615,1.0);
#558=CARTESIAN_POINT('',(3.16693662259506E-15,-6.99999999999997,-37.72));
#559=AXIS2_PLACEMENT_3D('',#616,#617,#618);
#560=CARTESIAN_POINT('',(3.14979156740699E-15,-6.72,-38.0));
#561=CARTESIAN_POINT('',(3.15836409500102E-15,-6.85999999999999,-37.86));
#562=VECTOR('',#619,1.0);
#563=AXIS2_PLACEMENT_3D('',#620,#621,#622);
#564=COLOUR_RGB('',0.800000011920929,0.800000011920929,0.800000011920929);
#565=CARTESIAN_POINT('',(7.34788079488412E-16,7.0,-12.0));
#566=CARTESIAN_POINT('',(6.64983211937015E-16,7.00000000000001,-24.86));
#567=VECTOR('',#623,1.0);
#568=CARTESIAN_POINT('',(1.59204083889156E-15,-6.99999999999994,-12.0));
#569=AXIS2_PLACEMENT_3D('',#624,#625,#626);
#570=CARTESIAN_POINT('',(2.37948873074331E-15,-6.99999999999996,-24.86));
#571=VECTOR('',#627,1.0);
#572=COLOUR_RGB('',0.800000011920929,0.800000011920929,0.800000011920929);
#573=AXIS2_PLACEMENT_3D('',#628,#629,#630);
#574=COLOUR_RGB('',0.800000011920929,0.800000011920929,0.800000011920929);
#575=AXIS2_PLACEMENT_3D('',#631,#632,#633);
#576=COLOUR_RGB('',0.800000011920929,0.800000011920929,0.800000011920929);
#577=AXIS2_PLACEMENT_3D('',#634,#635,#636);
#578=COLOUR_RGB('',0.800000011920929,0.800000011920929,0.800000011920929);
#579=DIRECTION('',(6.12323399573677E-17,0.0,-1.0));
#580=CARTESIAN_POINT('',(-2.68197649013271E-15,2.8421709430404E-14,43.8));
#581=DIRECTION('',(6.12323399573677E-17,0.0,-1.0));
#582=DIRECTION('',(0.0,1.0,0.0));
#583=DIRECTION('',(-6.12323399573677E-17,-0.0,1.0));
#584=CARTESIAN_POINT('',(1.22464679914736E-16,2.8421709430404E-14,-2.0));
#585=DIRECTION('',(6.12323399573677E-17,0.0,-1.0));
#586=DIRECTION('',(0.0,1.0,0.0));
#587=DIRECTION('',(-4.32978028117761E-17,0.707106781186556,-0.707106781186539));
#588=CARTESIAN_POINT('',(-2.75545529808155E-15,2.8421709430404E-14,45.0));
#589=DIRECTION('',(6.12323399573676E-17,0.0,-1.0));
#590=DIRECTION('',(0.0,1.0,0.0));
#591=DIRECTION('',(-1.29893408435325E-16,0.707106781186556,0.707106781186539));
#592=DIRECTION('',(6.12323399573677E-17,0.0,-1.0));
#593=CARTESIAN_POINT('',(1.22464679914736E-16,2.8421709430404E-14,-2.0));
#594=DIRECTION('',(6.12323399573677E-17,0.0,-1.0));
#595=DIRECTION('',(0.0,1.0,0.0));
#596=DIRECTION('',(-6.12323399573677E-17,-0.0,1.0));
#597=CARTESIAN_POINT('',(7.34788079488412E-16,2.8421709430404E-14,-12.0));
#598=DIRECTION('',(6.12323399573677E-17,0.0,-1.0));
#599=DIRECTION('',(0.0,1.0,0.0));
#600=CARTESIAN_POINT('',(7.34788079488412E-16,2.8421709430404E-14,-12.0));
#601=DIRECTION('',(6.12323399573677E-17,0.0,-1.0));
#602=DIRECTION('',(0.0,1.0,0.0));
#603=CARTESIAN_POINT('',(1.22464679914736E-16,2.8421709430404E-14,-2.0));
#604=DIRECTION('',(6.12323399573677E-17,0.0,-1.0));
#605=DIRECTION('',(0.0,1.0,0.0));
#606=CARTESIAN_POINT('',(-2.75545529808155E-15,2.8421709430404E-14,45.0));
#607=DIRECTION('',(6.12323399573676E-17,0.0,-1.0));
#608=DIRECTION('',(0.0,1.0,0.0));
#609=CARTESIAN_POINT('',(-2.68197649013271E-15,2.8421709430404E-14,43.8));
#610=DIRECTION('',(6.12323399573677E-17,0.0,-1.0));
#611=DIRECTION('',(0.0,1.0,0.0));
#612=CARTESIAN_POINT('',(1.22464679914736E-16,2.8421709430404E-14,-2.0));
#613=DIRECTION('',(6.12323399573677E-17,0.0,-1.0));
#614=DIRECTION('',(0.0,1.0,0.0));
#615=DIRECTION('',(1.29893408435324E-16,-0.707106781186548,-0.707106781186547));
#616=CARTESIAN_POINT('',(2.30968386319191E-15,2.8421709430404E-14,-37.72));
#617=DIRECTION('',(6.12323399573677E-17,0.0,-1.0));
#618=DIRECTION('',(0.0,1.0,0.0));
#619=DIRECTION('',(4.32978028117747E-17,-0.707106781186548,0.707106781186547));
#620=CARTESIAN_POINT('',(2.32682891837997E-15,2.8421709430404E-14,-38.0));
#621=DIRECTION('',(6.12323399573676E-17,0.0,-1.0));
#622=DIRECTION('',(0.0,1.0,0.0));
#623=DIRECTION('',(6.12323399573677E-17,0.0,-1.0));
#624=CARTESIAN_POINT('',(7.34788079488412E-16,2.8421709430404E-14,-12.0));
#625=DIRECTION('',(6.12323399573677E-17,0.0,-1.0));
#626=DIRECTION('',(0.0,1.0,0.0));
#627=DIRECTION('',(-6.12323399573677E-17,-0.0,1.0));
#628=CARTESIAN_POINT('',(7.34788079488412E-16,2.8421709430404E-14,-12.0));
#629=DIRECTION('',(6.12323399573677E-17,0.0,-1.0));
#630=DIRECTION('',(0.0,1.0,0.0));
#631=CARTESIAN_POINT('',(2.30968386319191E-15,2.8421709430404E-14,-37.72));
#632=DIRECTION('',(6.12323399573677E-17,0.0,-1.0));
#633=DIRECTION('',(0.0,1.0,0.0));
#634=CARTESIAN_POINT('',(2.32682891837997E-15,2.8421709430404E-14,-38.0));
#635=DIRECTION('',(6.12323399573676E-17,0.0,-1.0));
#636=DIRECTION('',(0.0,1.0,0.0));
#637=DIRECTION('',(0.0,0.0,1.0));
#638=DIRECTION('',(1.0,0.0,0.0));
#639=CARTESIAN_POINT('',(0.0,0.0,45.000000));
#640=AXIS2_PLACEMENT_3D('PCS', #639,#637,#638);
#641=CARTESIAN_POINT('',(0.0,0.0,0.000000));
#642=AXIS2_PLACEMENT_3D('MCS', #641,#637,#638);
#643=CARTESIAN_POINT('',(0.0,0.0,-38.000000));
#644=AXIS2_PLACEMENT_3D('CIP', #643,#637,#638);
ENDSEC;
END-ISO-10303-21;
