ISO-10303-21;
HEADER;
FILE_DESCRIPTION(('STEP AP214'),'1');
FILE_NAME('608058175-000-00-E43.stp','2024-02-26T06:51:41',(' '),(' '),'Spatial InterOp 3D',' ',' ');
FILE_SCHEMA(('AUTOMOTIVE_DESIGN { 1 0 10303 214 1 1 1 1 }'));
ENDSEC;
DATA;
#1=MECHANICAL_DESIGN_GEOMETRIC_PRESENTATION_REPRESENTATION(' ',(#12,#13,#14,#15,#16,#17,#18,#19,#20,#21,#22,#23,#24,#25,#26,#27,#28,#29,#30),#8);
#2=PRODUCT_DEFINITION_CONTEXT('',#31,'design');
#3=APPLICATION_PROTOCOL_DEFINITION('INTERNATIONAL STANDARD','automotive_design',1994,#31);
#4=PRODUCT_CATEGORY_RELATIONSHIP('NONE','NONE',#32,#33);
#5=SHAPE_DEFINITION_REPRESENTATION(#34,#35);
#6=SHAPE_DEFINITION_REPRESENTATION(#34,#36);
#7=SHAPE_DEFINITION_REPRESENTATION(#34,#37);
#8= (GEOMETRIC_REPRESENTATION_CONTEXT(3)GLOBAL_UNCERTAINTY_ASSIGNED_CONTEXT((#40))GLOBAL_UNIT_ASSIGNED_CONTEXT((#42,#43,#44))REPRESENTATION_CONTEXT('NONE','WORKSPACE'));
#12=STYLED_ITEM('',(#46),#47);
#13=STYLED_ITEM('',(#48),#49);
#14=STYLED_ITEM('',(#50),#51);
#15=STYLED_ITEM('',(#52),#53);
#16=STYLED_ITEM('',(#54),#55);
#17=STYLED_ITEM('',(#56),#57);
#18=STYLED_ITEM('',(#58),#59);
#19=STYLED_ITEM('',(#60),#61);
#20=STYLED_ITEM('',(#62),#63);
#21=STYLED_ITEM('',(#64),#65);
#22=STYLED_ITEM('',(#66),#67);
#23=STYLED_ITEM('',(#68),#69);
#24=STYLED_ITEM('',(#70),#71);
#25=STYLED_ITEM('',(#72),#73);
#26=STYLED_ITEM('',(#74),#75);
#27=STYLED_ITEM('',(#76),#77);
#28=STYLED_ITEM('',(#78),#79);
#29=STYLED_ITEM('',(#80),#81);
#30=STYLED_ITEM('',(#82),#83);
#31=APPLICATION_CONTEXT(' ');
#32=PRODUCT_CATEGORY('part','NONE');
#33=PRODUCT_RELATED_PRODUCT_CATEGORY('detail',' ',(#84));
#34=PRODUCT_DEFINITION_SHAPE('NONE','NONE',#85);
#35=ADVANCED_BREP_SHAPE_REPRESENTATION('1',(#86,#87),#8);
#36=ADVANCED_BREP_SHAPE_REPRESENTATION('2',(#88,#89),#8);
#37=GEOMETRICALLY_BOUNDED_SURFACE_SHAPE_REPRESENTATION('3',(#90,#91),#8);
#40=UNCERTAINTY_MEASURE_WITH_UNIT(LENGTH_MEASURE(1.0E-06),#42,'','');
#42= (CONVERSION_BASED_UNIT('MILLIMETRE',#94)LENGTH_UNIT()NAMED_UNIT(#97));
#43= (NAMED_UNIT(#99)PLANE_ANGLE_UNIT()SI_UNIT($,.RADIAN.));
#44= (NAMED_UNIT(#99)SOLID_ANGLE_UNIT()SI_UNIT($,.STERADIAN.));
#46=PRESENTATION_STYLE_ASSIGNMENT((#105));
#47=COMPOSITE_CURVE('',(#106),.U.);
#48=PRESENTATION_STYLE_ASSIGNMENT((#107));
#49=COMPOSITE_CURVE('',(#108,#109,#110,#111,#112,#113,#114),.U.);
#50=PRESENTATION_STYLE_ASSIGNMENT((#115));
#51=ADVANCED_FACE('',(#116),#117,.T.);
#52=PRESENTATION_STYLE_ASSIGNMENT((#118));
#53=ADVANCED_FACE('',(#119),#120,.T.);
#54=PRESENTATION_STYLE_ASSIGNMENT((#121));
#55=ADVANCED_FACE('',(#122),#123,.T.);
#56=PRESENTATION_STYLE_ASSIGNMENT((#124));
#57=ADVANCED_FACE('',(#125),#126,.T.);
#58=PRESENTATION_STYLE_ASSIGNMENT((#127));
#59=ADVANCED_FACE('',(#128),#129,.T.);
#60=PRESENTATION_STYLE_ASSIGNMENT((#130));
#61=ADVANCED_FACE('',(#131),#132,.T.);
#62=PRESENTATION_STYLE_ASSIGNMENT((#133));
#63=ADVANCED_FACE('',(#134),#135,.T.);
#64=PRESENTATION_STYLE_ASSIGNMENT((#136));
#65=ADVANCED_FACE('',(#137),#138,.T.);
#66=PRESENTATION_STYLE_ASSIGNMENT((#139));
#67=ADVANCED_FACE('',(#140),#141,.T.);
#68=PRESENTATION_STYLE_ASSIGNMENT((#142));
#69=ADVANCED_FACE('',(#143),#144,.T.);
#70=PRESENTATION_STYLE_ASSIGNMENT((#145));
#71=COMPOSITE_CURVE('',(#146,#147,#148,#149,#150),.U.);
#72=PRESENTATION_STYLE_ASSIGNMENT((#151));
#73=ADVANCED_FACE('',(#152),#153,.T.);
#74=PRESENTATION_STYLE_ASSIGNMENT((#154));
#75=ADVANCED_FACE('',(#155),#156,.T.);
#76=PRESENTATION_STYLE_ASSIGNMENT((#157));
#77=ADVANCED_FACE('',(#158),#159,.T.);
#78=PRESENTATION_STYLE_ASSIGNMENT((#160));
#79=ADVANCED_FACE('',(#161),#162,.T.);
#80=PRESENTATION_STYLE_ASSIGNMENT((#163));
#81=ADVANCED_FACE('',(#164),#165,.T.);
#82=PRESENTATION_STYLE_ASSIGNMENT((#166));
#83=ADVANCED_FACE('',(#167),#168,.T.);
#84=PRODUCT('1','','PART--DESC',(#169));
#85=PRODUCT_DEFINITION('','NONE',#170,#2);
#86=MANIFOLD_SOLID_BREP('1',#171);
#87=AXIS2_PLACEMENT_3D('',#172,#173,#174);
#88=MANIFOLD_SOLID_BREP('2',#175);
#89=AXIS2_PLACEMENT_3D('',#176,#177,#178);
#90=GEOMETRIC_SET('3',(#47,#49,#71));
#91=AXIS2_PLACEMENT_3D('',#179,#180,#181);
#94=LENGTH_MEASURE_WITH_UNIT(LENGTH_MEASURE(1.0),#182);
#97=DIMENSIONAL_EXPONENTS(1.0,0.0,0.0,0.0,0.0,0.0,0.0);
#99=DIMENSIONAL_EXPONENTS(0.0,0.0,0.0,0.0,0.0,0.0,0.0);
#105=CURVE_STYLE('',#183,POSITIVE_LENGTH_MEASURE(1.0E-06),#184);
#106=COMPOSITE_CURVE_SEGMENT(.CONTINUOUS.,.T.,#185);
#107=CURVE_STYLE('',#186,POSITIVE_LENGTH_MEASURE(1.0E-06),#187);
#108=COMPOSITE_CURVE_SEGMENT(.CONTINUOUS.,.T.,#188);
#109=COMPOSITE_CURVE_SEGMENT(.CONTINUOUS.,.T.,#189);
#110=COMPOSITE_CURVE_SEGMENT(.CONTINUOUS.,.T.,#190);
#111=COMPOSITE_CURVE_SEGMENT(.CONTINUOUS.,.T.,#191);
#112=COMPOSITE_CURVE_SEGMENT(.CONTINUOUS.,.T.,#192);
#113=COMPOSITE_CURVE_SEGMENT(.CONTINUOUS.,.T.,#193);
#114=COMPOSITE_CURVE_SEGMENT(.CONTINUOUS.,.T.,#194);
#115=SURFACE_STYLE_USAGE(.BOTH.,#195);
#116=FACE_OUTER_BOUND('',#196,.T.);
#117=CYLINDRICAL_SURFACE('',#197,9.5);
#118=SURFACE_STYLE_USAGE(.BOTH.,#198);
#119=FACE_OUTER_BOUND('',#199,.T.);
#120=CONICAL_SURFACE('',#200,9.75,0.785398163397448);
#121=SURFACE_STYLE_USAGE(.BOTH.,#201);
#122=FACE_OUTER_BOUND('',#202,.T.);
#123=CYLINDRICAL_SURFACE('',#203,10.0);
#124=SURFACE_STYLE_USAGE(.BOTH.,#204);
#125=FACE_OUTER_BOUND('',#205,.T.);
#126=CONICAL_SURFACE('',#206,8.35,0.785398163397448);
#127=SURFACE_STYLE_USAGE(.BOTH.,#207);
#128=FACE_OUTER_BOUND('',#208,.T.);
#129=PLANE('',#209);
#130=SURFACE_STYLE_USAGE(.BOTH.,#210);
#131=FACE_OUTER_BOUND('',#211,.T.);
#132=CONICAL_SURFACE('',#212,8.35,0.785398163397448);
#133=SURFACE_STYLE_USAGE(.BOTH.,#213);
#134=FACE_OUTER_BOUND('',#214,.T.);
#135=CYLINDRICAL_SURFACE('',#215,10.0);
#136=SURFACE_STYLE_USAGE(.BOTH.,#216);
#137=FACE_OUTER_BOUND('',#217,.T.);
#138=CONICAL_SURFACE('',#218,9.75,0.785398163397448);
#139=SURFACE_STYLE_USAGE(.BOTH.,#219);
#140=FACE_OUTER_BOUND('',#220,.T.);
#141=CYLINDRICAL_SURFACE('',#221,9.5);
#142=SURFACE_STYLE_USAGE(.BOTH.,#222);
#143=FACE_OUTER_BOUND('',#223,.T.);
#144=PLANE('',#224);
#145=CURVE_STYLE('',#225,POSITIVE_LENGTH_MEASURE(1.0E-06),#226);
#146=COMPOSITE_CURVE_SEGMENT(.CONTINUOUS.,.T.,#227);
#147=COMPOSITE_CURVE_SEGMENT(.CONTINUOUS.,.T.,#228);
#148=COMPOSITE_CURVE_SEGMENT(.CONTINUOUS.,.T.,#229);
#149=COMPOSITE_CURVE_SEGMENT(.CONTINUOUS.,.T.,#230);
#150=COMPOSITE_CURVE_SEGMENT(.CONTINUOUS.,.T.,#231);
#151=SURFACE_STYLE_USAGE(.BOTH.,#232);
#152=FACE_OUTER_BOUND('',#233,.T.);
#153=CONICAL_SURFACE('',#234,9.22575862213493,0.523598775598307);
#154=SURFACE_STYLE_USAGE(.BOTH.,#235);
#155=FACE_OUTER_BOUND('',#236,.T.);
#156=CYLINDRICAL_SURFACE('',#237,9.5);
#157=SURFACE_STYLE_USAGE(.BOTH.,#238);
#158=FACE_OUTER_BOUND('',#239,.T.);
#159=PLANE('',#240);
#160=SURFACE_STYLE_USAGE(.BOTH.,#241);
#161=FACE_OUTER_BOUND('',#242,.T.);
#162=CYLINDRICAL_SURFACE('',#243,9.5);
#163=SURFACE_STYLE_USAGE(.BOTH.,#244);
#164=FACE_OUTER_BOUND('',#245,.T.);
#165=CONICAL_SURFACE('',#246,9.22575862213493,0.523598775598307);
#166=SURFACE_STYLE_USAGE(.BOTH.,#247);
#167=FACE_OUTER_BOUND('',#248,.T.);
#168=PLANE('',#249);
#169=PRODUCT_CONTEXT('',#31,'mechanical');
#170=PRODUCT_DEFINITION_FORMATION_WITH_SPECIFIED_SOURCE(' ','NONE',#84,.NOT_KNOWN.);
#171=CLOSED_SHELL('',(#51,#53,#55,#57,#59,#61,#63,#65,#67,#69));
#172=CARTESIAN_POINT('',(0.0,0.0,0.0));
#173=DIRECTION('',(0.0,0.0,1.0));
#174=DIRECTION('',(1.0,0.0,0.0));
#175=CLOSED_SHELL('',(#73,#75,#77,#79,#81,#83));
#176=CARTESIAN_POINT('',(0.0,0.0,0.0));
#177=DIRECTION('',(0.0,0.0,1.0));
#178=DIRECTION('',(1.0,0.0,0.0));
#179=CARTESIAN_POINT('',(0.0,0.0,0.0));
#180=DIRECTION('',(0.0,0.0,1.0));
#181=DIRECTION('',(1.0,0.0,0.0));
#182= (NAMED_UNIT(#97)LENGTH_UNIT()SI_UNIT(.MILLI.,.METRE.));
#183=DRAUGHTING_PRE_DEFINED_CURVE_FONT('continuous');
#184=COLOUR_RGB('',0.0,1.0,0.0);
#185=TRIMMED_CURVE('',#251,(PARAMETER_VALUE(0.0)),(PARAMETER_VALUE(10.0)),.T.,.UNSPECIFIED.);
#186=DRAUGHTING_PRE_DEFINED_CURVE_FONT('continuous');
#187=COLOUR_RGB('',0.498039215803146,0.498039215803146,0.498039215803146);
#188=TRIMMED_CURVE('',#252,(PARAMETER_VALUE(0.0)),(PARAMETER_VALUE(9.5)),.T.,.UNSPECIFIED.);
#189=TRIMMED_CURVE('',#253,(PARAMETER_VALUE(0.0)),(PARAMETER_VALUE(1.5)),.T.,.UNSPECIFIED.);
#190=TRIMMED_CURVE('',#254,(PARAMETER_VALUE(0.0)),(PARAMETER_VALUE(0.707106781186547)),.T.,.UNSPECIFIED.);
#191=TRIMMED_CURVE('',#255,(PARAMETER_VALUE(0.0)),(PARAMETER_VALUE(46.7)),.T.,.UNSPECIFIED.);
#192=TRIMMED_CURVE('',#256,(PARAMETER_VALUE(0.0)),(PARAMETER_VALUE(4.66690475583121)),.T.,.UNSPECIFIED.);
#193=TRIMMED_CURVE('',#257,(PARAMETER_VALUE(0.0)),(PARAMETER_VALUE(6.7)),.T.,.UNSPECIFIED.);
#194=TRIMMED_CURVE('',#258,(PARAMETER_VALUE(0.0)),(PARAMETER_VALUE(52.0)),.T.,.UNSPECIFIED.);
#195=SURFACE_SIDE_STYLE('',(#259));
#196=EDGE_LOOP('',(#260,#261,#262,#263));
#197=AXIS2_PLACEMENT_3D('',#264,#265,#266);
#198=SURFACE_SIDE_STYLE('',(#267));
#199=EDGE_LOOP('',(#268,#269,#270,#271));
#200=AXIS2_PLACEMENT_3D('',#272,#273,#274);
#201=SURFACE_SIDE_STYLE('',(#275));
#202=EDGE_LOOP('',(#276,#277,#278,#279));
#203=AXIS2_PLACEMENT_3D('',#280,#281,#282);
#204=SURFACE_SIDE_STYLE('',(#283));
#205=EDGE_LOOP('',(#284,#285,#286,#287));
#206=AXIS2_PLACEMENT_3D('',#288,#289,#290);
#207=SURFACE_SIDE_STYLE('',(#291));
#208=EDGE_LOOP('',(#292,#293));
#209=AXIS2_PLACEMENT_3D('',#294,#295,#296);
#210=SURFACE_SIDE_STYLE('',(#297));
#211=EDGE_LOOP('',(#298,#299,#300,#301));
#212=AXIS2_PLACEMENT_3D('',#302,#303,#304);
#213=SURFACE_SIDE_STYLE('',(#305));
#214=EDGE_LOOP('',(#306,#307,#308,#309));
#215=AXIS2_PLACEMENT_3D('',#310,#311,#312);
#216=SURFACE_SIDE_STYLE('',(#313));
#217=EDGE_LOOP('',(#314,#315,#316,#317));
#218=AXIS2_PLACEMENT_3D('',#318,#319,#320);
#219=SURFACE_SIDE_STYLE('',(#321));
#220=EDGE_LOOP('',(#322,#323,#324,#325));
#221=AXIS2_PLACEMENT_3D('',#326,#327,#328);
#222=SURFACE_SIDE_STYLE('',(#329));
#223=EDGE_LOOP('',(#330,#331));
#224=AXIS2_PLACEMENT_3D('',#332,#333,#334);
#225=DRAUGHTING_PRE_DEFINED_CURVE_FONT('continuous');
#226=COLOUR_RGB('',0.0,0.0,1.0);
#227=TRIMMED_CURVE('',#335,(PARAMETER_VALUE(0.0)),(PARAMETER_VALUE(8.95151724426985)),.T.,.UNSPECIFIED.);
#228=TRIMMED_CURVE('',#336,(PARAMETER_VALUE(0.0)),(PARAMETER_VALUE(1.09696551146028)),.T.,.UNSPECIFIED.);
#229=TRIMMED_CURVE('',#337,(PARAMETER_VALUE(0.0)),(PARAMETER_VALUE(98.05)),.T.,.UNSPECIFIED.);
#230=TRIMMED_CURVE('',#338,(PARAMETER_VALUE(0.0)),(PARAMETER_VALUE(9.5)),.T.,.UNSPECIFIED.);
#231=TRIMMED_CURVE('',#339,(PARAMETER_VALUE(0.0)),(PARAMETER_VALUE(99.0)),.T.,.UNSPECIFIED.);
#232=SURFACE_SIDE_STYLE('',(#340));
#233=EDGE_LOOP('',(#341,#342,#343,#344));
#234=AXIS2_PLACEMENT_3D('',#345,#346,#347);
#235=SURFACE_SIDE_STYLE('',(#348));
#236=EDGE_LOOP('',(#349,#350,#351,#352));
#237=AXIS2_PLACEMENT_3D('',#353,#354,#355);
#238=SURFACE_SIDE_STYLE('',(#356));
#239=EDGE_LOOP('',(#357,#358));
#240=AXIS2_PLACEMENT_3D('',#359,#360,#361);
#241=SURFACE_SIDE_STYLE('',(#362));
#242=EDGE_LOOP('',(#363,#364,#365,#366));
#243=AXIS2_PLACEMENT_3D('',#367,#368,#369);
#244=SURFACE_SIDE_STYLE('',(#370));
#245=EDGE_LOOP('',(#371,#372,#373,#374));
#246=AXIS2_PLACEMENT_3D('',#375,#376,#377);
#247=SURFACE_SIDE_STYLE('',(#378));
#248=EDGE_LOOP('',(#379,#380));
#249=AXIS2_PLACEMENT_3D('',#381,#382,#383);
#251=LINE('',#384,#385);
#252=LINE('',#386,#387);
#253=LINE('',#388,#389);
#254=LINE('',#390,#391);
#255=LINE('',#392,#393);
#256=LINE('',#394,#395);
#257=LINE('',#396,#397);
#258=LINE('',#398,#399);
#259=SURFACE_STYLE_FILL_AREA(#400);
#260=ORIENTED_EDGE('',*,*,#401,.F.);
#261=ORIENTED_EDGE('',*,*,#402,.T.);
#262=ORIENTED_EDGE('',*,*,#403,.F.);
#263=ORIENTED_EDGE('',*,*,#404,.F.);
#264=CARTESIAN_POINT('',(7.65404249467095E-17,0.0,-1.25));
#265=DIRECTION('',(6.12323399573676E-17,0.0,-1.0));
#266=DIRECTION('',(0.0,1.0,0.0));
#267=SURFACE_STYLE_FILL_AREA(#405);
#268=ORIENTED_EDGE('',*,*,#406,.F.);
#269=ORIENTED_EDGE('',*,*,#407,.T.);
#270=ORIENTED_EDGE('',*,*,#408,.F.);
#271=ORIENTED_EDGE('',*,*,#402,.F.);
#272=CARTESIAN_POINT('',(1.53080849893419E-17,0.0,-0.25));
#273=DIRECTION('',(-6.12323399573677E-17,-0.0,1.0));
#274=DIRECTION('',(0.0,1.0,0.0));
#275=SURFACE_STYLE_FILL_AREA(#409);
#276=ORIENTED_EDGE('',*,*,#410,.F.);
#277=ORIENTED_EDGE('',*,*,#411,.T.);
#278=ORIENTED_EDGE('',*,*,#412,.F.);
#279=ORIENTED_EDGE('',*,*,#407,.F.);
#280=CARTESIAN_POINT('',(-1.42977513800453E-15,0.0,23.35));
#281=DIRECTION('',(6.12323399573677E-17,0.0,-1.0));
#282=DIRECTION('',(0.0,1.0,0.0));
#283=SURFACE_STYLE_FILL_AREA(#413);
#284=ORIENTED_EDGE('',*,*,#414,.F.);
#285=ORIENTED_EDGE('',*,*,#415,.T.);
#286=ORIENTED_EDGE('',*,*,#416,.F.);
#287=ORIENTED_EDGE('',*,*,#411,.F.);
#288=CARTESIAN_POINT('',(-2.96058363693873E-15,0.0,48.35));
#289=DIRECTION('',(6.12323399573677E-17,-0.0,-1.0));
#290=DIRECTION('',(0.0,1.0,0.0));
#291=SURFACE_STYLE_FILL_AREA(#417);
#292=ORIENTED_EDGE('',*,*,#415,.F.);
#293=ORIENTED_EDGE('',*,*,#418,.F.);
#294=CARTESIAN_POINT('',(-3.06161699786838E-15,3.35,50.0));
#295=DIRECTION('',(-6.12323399573677E-17,0.0,1.0));
#296=DIRECTION('',(0.0,-1.0,0.0));
#297=SURFACE_STYLE_FILL_AREA(#419);
#298=ORIENTED_EDGE('',*,*,#414,.T.);
#299=ORIENTED_EDGE('',*,*,#420,.F.);
#300=ORIENTED_EDGE('',*,*,#416,.T.);
#301=ORIENTED_EDGE('',*,*,#418,.T.);
#302=CARTESIAN_POINT('',(-2.96058363693873E-15,0.0,48.35));
#303=DIRECTION('',(6.12323399573677E-17,-0.0,-1.0));
#304=DIRECTION('',(0.0,1.0,0.0));
#305=SURFACE_STYLE_FILL_AREA(#421);
#306=ORIENTED_EDGE('',*,*,#410,.T.);
#307=ORIENTED_EDGE('',*,*,#422,.F.);
#308=ORIENTED_EDGE('',*,*,#412,.T.);
#309=ORIENTED_EDGE('',*,*,#420,.T.);
#310=CARTESIAN_POINT('',(-1.42977513800453E-15,0.0,23.35));
#311=DIRECTION('',(6.12323399573677E-17,0.0,-1.0));
#312=DIRECTION('',(0.0,1.0,0.0));
#313=SURFACE_STYLE_FILL_AREA(#423);
#314=ORIENTED_EDGE('',*,*,#406,.T.);
#315=ORIENTED_EDGE('',*,*,#424,.F.);
#316=ORIENTED_EDGE('',*,*,#408,.T.);
#317=ORIENTED_EDGE('',*,*,#422,.T.);
#318=CARTESIAN_POINT('',(1.53080849893419E-17,0.0,-0.25));
#319=DIRECTION('',(-6.12323399573677E-17,-0.0,1.0));
#320=DIRECTION('',(0.0,1.0,0.0));
#321=SURFACE_STYLE_FILL_AREA(#425);
#322=ORIENTED_EDGE('',*,*,#401,.T.);
#323=ORIENTED_EDGE('',*,*,#426,.F.);
#324=ORIENTED_EDGE('',*,*,#403,.T.);
#325=ORIENTED_EDGE('',*,*,#424,.T.);
#326=CARTESIAN_POINT('',(7.65404249467095E-17,0.0,-1.25));
#327=DIRECTION('',(6.12323399573676E-17,0.0,-1.0));
#328=DIRECTION('',(0.0,1.0,0.0));
#329=SURFACE_STYLE_FILL_AREA(#427);
#330=ORIENTED_EDGE('',*,*,#404,.T.);
#331=ORIENTED_EDGE('',*,*,#426,.T.);
#332=CARTESIAN_POINT('',(1.22464679914735E-16,4.75,-2.0));
#333=DIRECTION('',(6.12323399573677E-17,0.0,-1.0));
#334=DIRECTION('',(0.0,1.0,0.0));
#335=LINE('',#428,#429);
#336=LINE('',#430,#431);
#337=LINE('',#432,#433);
#338=LINE('',#434,#435);
#339=LINE('',#436,#437);
#340=SURFACE_STYLE_FILL_AREA(#438);
#341=ORIENTED_EDGE('',*,*,#439,.F.);
#342=ORIENTED_EDGE('',*,*,#440,.T.);
#343=ORIENTED_EDGE('',*,*,#441,.F.);
#344=ORIENTED_EDGE('',*,*,#442,.F.);
#345=CARTESIAN_POINT('',(6.15538097421438E-15,0.0,-100.525));
#346=DIRECTION('',(-6.12323399573677E-17,-0.0,1.0));
#347=DIRECTION('',(0.0,1.0,0.0));
#348=SURFACE_STYLE_FILL_AREA(#443);
#349=ORIENTED_EDGE('',*,*,#444,.F.);
#350=ORIENTED_EDGE('',*,*,#445,.T.);
#351=ORIENTED_EDGE('',*,*,#446,.F.);
#352=ORIENTED_EDGE('',*,*,#440,.F.);
#353=CARTESIAN_POINT('',(3.12438014632469E-15,0.0,-51.025));
#354=DIRECTION('',(6.12323399573676E-17,0.0,-1.0));
#355=DIRECTION('',(0.0,1.0,0.0));
#356=SURFACE_STYLE_FILL_AREA(#447);
#357=ORIENTED_EDGE('',*,*,#445,.F.);
#358=ORIENTED_EDGE('',*,*,#448,.F.);
#359=CARTESIAN_POINT('',(1.22464679914735E-16,4.75,-2.0));
#360=DIRECTION('',(-6.12323399573677E-17,0.0,1.0));
#361=DIRECTION('',(0.0,-1.0,0.0));
#362=SURFACE_STYLE_FILL_AREA(#449);
#363=ORIENTED_EDGE('',*,*,#444,.T.);
#364=ORIENTED_EDGE('',*,*,#450,.F.);
#365=ORIENTED_EDGE('',*,*,#446,.T.);
#366=ORIENTED_EDGE('',*,*,#448,.T.);
#367=CARTESIAN_POINT('',(3.12438014632469E-15,0.0,-51.025));
#368=DIRECTION('',(6.12323399573676E-17,0.0,-1.0));
#369=DIRECTION('',(0.0,1.0,0.0));
#370=SURFACE_STYLE_FILL_AREA(#451);
#371=ORIENTED_EDGE('',*,*,#439,.T.);
#372=ORIENTED_EDGE('',*,*,#452,.F.);
#373=ORIENTED_EDGE('',*,*,#441,.T.);
#374=ORIENTED_EDGE('',*,*,#450,.T.);
#375=CARTESIAN_POINT('',(6.15538097421438E-15,0.0,-100.525));
#376=DIRECTION('',(-6.12323399573677E-17,-0.0,1.0));
#377=DIRECTION('',(0.0,1.0,0.0));
#378=SURFACE_STYLE_FILL_AREA(#453);
#379=ORIENTED_EDGE('',*,*,#442,.T.);
#380=ORIENTED_EDGE('',*,*,#452,.T.);
#381=CARTESIAN_POINT('',(6.18446633569413E-15,4.47575862213493,-101.0));
#382=DIRECTION('',(6.12323399573677E-17,0.0,-1.0));
#383=DIRECTION('',(0.0,1.0,0.0));
#384=CARTESIAN_POINT('',(0.0,10.0,0.0));
#385=VECTOR('',#454,1.0);
#386=CARTESIAN_POINT('',(1.22464679914735E-16,0.0,-2.0));
#387=VECTOR('',#455,1.0);
#388=CARTESIAN_POINT('',(1.22464679914735E-16,9.5,-2.0));
#389=VECTOR('',#456,1.0);
#390=CARTESIAN_POINT('',(3.06161699786838E-17,9.5,-0.5));
#391=VECTOR('',#457,1.0);
#392=CARTESIAN_POINT('',(0.0,10.0,0.0));
#393=VECTOR('',#458,1.0);
#394=CARTESIAN_POINT('',(-2.85955027600907E-15,10.0,46.7));
#395=VECTOR('',#459,1.0);
#396=CARTESIAN_POINT('',(-3.06161699786838E-15,6.7,50.0));
#397=VECTOR('',#460,1.0);
#398=CARTESIAN_POINT('',(-3.06161699786838E-15,0.0,50.0));
#399=VECTOR('',#461,1.0);
#400=FILL_AREA_STYLE('',(#462));
#401=EDGE_CURVE('',#463,#464,#465,.T.);
#402=EDGE_CURVE('',#463,#466,#467,.T.);
#403=EDGE_CURVE('',#468,#466,#469,.T.);
#404=EDGE_CURVE('',#464,#468,#470,.T.);
#405=FILL_AREA_STYLE('',(#471));
#406=EDGE_CURVE('',#472,#463,#473,.T.);
#407=EDGE_CURVE('',#472,#474,#475,.T.);
#408=EDGE_CURVE('',#466,#474,#476,.T.);
#409=FILL_AREA_STYLE('',(#477));
#410=EDGE_CURVE('',#478,#472,#479,.T.);
#411=EDGE_CURVE('',#478,#480,#481,.T.);
#412=EDGE_CURVE('',#474,#480,#482,.T.);
#413=FILL_AREA_STYLE('',(#483));
#414=EDGE_CURVE('',#484,#478,#485,.T.);
#415=EDGE_CURVE('',#484,#486,#487,.T.);
#416=EDGE_CURVE('',#480,#486,#488,.T.);
#417=FILL_AREA_STYLE('',(#489));
#418=EDGE_CURVE('',#486,#484,#490,.T.);
#419=FILL_AREA_STYLE('',(#491));
#420=EDGE_CURVE('',#480,#478,#492,.T.);
#421=FILL_AREA_STYLE('',(#493));
#422=EDGE_CURVE('',#474,#472,#494,.T.);
#423=FILL_AREA_STYLE('',(#495));
#424=EDGE_CURVE('',#466,#463,#496,.T.);
#425=FILL_AREA_STYLE('',(#497));
#426=EDGE_CURVE('',#468,#464,#498,.T.);
#427=FILL_AREA_STYLE('',(#499));
#428=CARTESIAN_POINT('',(6.18446633569413E-15,0.0,-101.0));
#429=VECTOR('',#500,1.0);
#430=CARTESIAN_POINT('',(6.18446633569413E-15,8.95151724426985,-101.0));
#431=VECTOR('',#501,1.0);
#432=CARTESIAN_POINT('',(6.12629561273464E-15,9.5,-100.05));
#433=VECTOR('',#502,1.0);
#434=CARTESIAN_POINT('',(1.22464679914735E-16,9.5,-2.0));
#435=VECTOR('',#503,1.0);
#436=CARTESIAN_POINT('',(1.22464679914735E-16,0.0,-2.0));
#437=VECTOR('',#504,1.0);
#438=FILL_AREA_STYLE('',(#505));
#439=EDGE_CURVE('',#506,#507,#508,.T.);
#440=EDGE_CURVE('',#506,#509,#510,.T.);
#441=EDGE_CURVE('',#511,#509,#512,.T.);
#442=EDGE_CURVE('',#507,#511,#513,.T.);
#443=FILL_AREA_STYLE('',(#514));
#444=EDGE_CURVE('',#515,#506,#516,.T.);
#445=EDGE_CURVE('',#515,#517,#518,.T.);
#446=EDGE_CURVE('',#509,#517,#519,.T.);
#447=FILL_AREA_STYLE('',(#520));
#448=EDGE_CURVE('',#517,#515,#521,.T.);
#449=FILL_AREA_STYLE('',(#522));
#450=EDGE_CURVE('',#509,#506,#523,.T.);
#451=FILL_AREA_STYLE('',(#524));
#452=EDGE_CURVE('',#511,#507,#525,.T.);
#453=FILL_AREA_STYLE('',(#526));
#454=DIRECTION('',(0.0,-1.0,0.0));
#455=DIRECTION('',(0.0,1.0,0.0));
#456=DIRECTION('',(-6.12323399573677E-17,0.0,1.0));
#457=DIRECTION('',(-4.32978028117747E-17,0.707106781186547,0.707106781186547));
#458=DIRECTION('',(-6.12323399573677E-17,0.0,1.0));
#459=DIRECTION('',(-4.32978028117747E-17,-0.707106781186547,0.707106781186547));
#460=DIRECTION('',(0.0,-1.0,0.0));
#461=DIRECTION('',(6.12323399573677E-17,0.0,-1.0));
#462=FILL_AREA_STYLE_COLOUR('',#527);
#463=VERTEX_POINT('',#528);
#464=VERTEX_POINT('',#529);
#465=LINE('',#530,#531);
#466=VERTEX_POINT('',#532);
#467=CIRCLE('',#533,9.5);
#468=VERTEX_POINT('',#534);
#469=LINE('',#535,#536);
#470=CIRCLE('',#537,9.5);
#471=FILL_AREA_STYLE_COLOUR('',#538);
#472=VERTEX_POINT('',#539);
#473=LINE('',#540,#541);
#474=VERTEX_POINT('',#542);
#475=CIRCLE('',#543,10.0);
#476=LINE('',#544,#545);
#477=FILL_AREA_STYLE_COLOUR('',#546);
#478=VERTEX_POINT('',#547);
#479=LINE('',#548,#549);
#480=VERTEX_POINT('',#550);
#481=CIRCLE('',#551,10.0);
#482=LINE('',#552,#553);
#483=FILL_AREA_STYLE_COLOUR('',#554);
#484=VERTEX_POINT('',#555);
#485=LINE('',#556,#557);
#486=VERTEX_POINT('',#558);
#487=CIRCLE('',#559,6.7);
#488=LINE('',#560,#561);
#489=FILL_AREA_STYLE_COLOUR('',#562);
#490=CIRCLE('',#563,6.7);
#491=FILL_AREA_STYLE_COLOUR('',#564);
#492=CIRCLE('',#565,10.0);
#493=FILL_AREA_STYLE_COLOUR('',#566);
#494=CIRCLE('',#567,10.0);
#495=FILL_AREA_STYLE_COLOUR('',#568);
#496=CIRCLE('',#569,9.5);
#497=FILL_AREA_STYLE_COLOUR('',#570);
#498=CIRCLE('',#571,9.5);
#499=FILL_AREA_STYLE_COLOUR('',#572);
#500=DIRECTION('',(0.0,1.0,0.0));
#501=DIRECTION('',(-5.30287619362448E-17,0.500000000000007,0.866025403784434));
#502=DIRECTION('',(-6.12323399573677E-17,0.0,1.0));
#503=DIRECTION('',(0.0,-1.0,0.0));
#504=DIRECTION('',(6.12323399573677E-17,0.0,-1.0));
#505=FILL_AREA_STYLE_COLOUR('',#573);
#506=VERTEX_POINT('',#574);
#507=VERTEX_POINT('',#575);
#508=LINE('',#576,#577);
#509=VERTEX_POINT('',#578);
#510=CIRCLE('',#579,9.5);
#511=VERTEX_POINT('',#580);
#512=LINE('',#581,#582);
#513=CIRCLE('',#583,8.95151724426985);
#514=FILL_AREA_STYLE_COLOUR('',#584);
#515=VERTEX_POINT('',#585);
#516=LINE('',#586,#587);
#517=VERTEX_POINT('',#588);
#518=CIRCLE('',#589,9.5);
#519=LINE('',#590,#591);
#520=FILL_AREA_STYLE_COLOUR('',#592);
#521=CIRCLE('',#593,9.5);
#522=FILL_AREA_STYLE_COLOUR('',#594);
#523=CIRCLE('',#595,9.5);
#524=FILL_AREA_STYLE_COLOUR('',#596);
#525=CIRCLE('',#597,8.95151724426985);
#526=FILL_AREA_STYLE_COLOUR('',#598);
#527=COLOUR_RGB('',0.498039215803146,0.498039215803146,0.498039215803146);
#528=CARTESIAN_POINT('',(3.06161699786838E-17,9.5,-0.5));
#529=CARTESIAN_POINT('',(1.22464679914735E-16,9.5,-2.0));
#530=CARTESIAN_POINT('',(-1.08687403424328E-15,9.5,-1.25));
#531=VECTOR('',#599,1.0);
#532=CARTESIAN_POINT('',(1.19403062916867E-15,-9.5,-0.5));
#533=AXIS2_PLACEMENT_3D('',#600,#601,#602);
#534=CARTESIAN_POINT('',(1.28587913910472E-15,-9.5,-2.0));
#535=CARTESIAN_POINT('',(1.23995488413669E-15,-9.5,-1.25));
#536=VECTOR('',#603,1.0);
#537=AXIS2_PLACEMENT_3D('',#604,#605,#606);
#538=COLOUR_RGB('',0.498039215803146,0.498039215803146,0.498039215803146);
#539=CARTESIAN_POINT('',(0.0,10.0,0.0));
#540=CARTESIAN_POINT('',(-1.17872254417933E-15,9.75,-0.25));
#541=VECTOR('',#607,1.0);
#542=CARTESIAN_POINT('',(1.22464679914735E-15,-10.0,7.49879891330929E-32));
#543=AXIS2_PLACEMENT_3D('',#608,#609,#610);
#544=CARTESIAN_POINT('',(1.20933871415801E-15,-9.75,-0.25));
#545=VECTOR('',#611,1.0);
#546=COLOUR_RGB('',0.498039215803146,0.498039215803146,0.498039215803146);
#547=CARTESIAN_POINT('',(-2.85955027600907E-15,10.0,46.7));
#548=CARTESIAN_POINT('',(-2.65442193715189E-15,10.0,23.35));
#549=VECTOR('',#612,1.0);
#550=CARTESIAN_POINT('',(-1.63490347686172E-15,-10.0,46.7));
#551=AXIS2_PLACEMENT_3D('',#613,#614,#615);
#552=CARTESIAN_POINT('',(-2.05128338857182E-16,-10.0,23.35));
#553=VECTOR('',#616,1.0);
#554=COLOUR_RGB('',0.498039215803146,0.498039215803146,0.498039215803146);
#555=CARTESIAN_POINT('',(-3.06161699786838E-15,6.7,50.0));
#556=CARTESIAN_POINT('',(-3.98316371422677E-15,8.35,48.35));
#557=VECTOR('',#617,1.0);
#558=CARTESIAN_POINT('',(-2.24110364243966E-15,-6.7,50.0));
#559=AXIS2_PLACEMENT_3D('',#618,#619,#620);
#560=CARTESIAN_POINT('',(-1.93800355965069E-15,-8.35,48.35));
#561=VECTOR('',#621,1.0);
#562=COLOUR_RGB('',0.498039215803146,0.498039215803146,0.498039215803146);
#563=AXIS2_PLACEMENT_3D('',#622,#623,#624);
#564=COLOUR_RGB('',0.498039215803146,0.498039215803146,0.498039215803146);
#565=AXIS2_PLACEMENT_3D('',#625,#626,#627);
#566=COLOUR_RGB('',0.498039215803146,0.498039215803146,0.498039215803146);
#567=AXIS2_PLACEMENT_3D('',#628,#629,#630);
#568=COLOUR_RGB('',0.498039215803146,0.498039215803146,0.498039215803146);
#569=AXIS2_PLACEMENT_3D('',#631,#632,#633);
#570=COLOUR_RGB('',0.498039215803146,0.498039215803146,0.498039215803146);
#571=AXIS2_PLACEMENT_3D('',#634,#635,#636);
#572=COLOUR_RGB('',0.498039215803146,0.498039215803146,0.498039215803146);
#573=COLOUR_RGB('',0.800000011920929,0.800000011920929,0.800000011920929);
#574=CARTESIAN_POINT('',(6.12629561273463E-15,9.5,-100.05));
#575=CARTESIAN_POINT('',(6.18446633569413E-15,8.95151724426985,-101.0));
#576=CARTESIAN_POINT('',(5.02555139758402E-15,9.22575862213492,-100.525));
#577=VECTOR('',#637,1.0);
#578=CARTESIAN_POINT('',(7.28971007192462E-15,-9.5,-100.05));
#579=AXIS2_PLACEMENT_3D('',#638,#639,#640);
#580=CARTESIAN_POINT('',(7.28071102976487E-15,-8.95151724426985,-101.0));
#581=CARTESIAN_POINT('',(7.28521055084475E-15,-9.22575862213492,-100.525));
#582=VECTOR('',#641,1.0);
#583=AXIS2_PLACEMENT_3D('',#642,#643,#644);
#584=COLOUR_RGB('',0.800000011920929,0.800000011920929,0.800000011920929);
#585=CARTESIAN_POINT('',(1.22464679914735E-16,9.5,-2.0));
#586=CARTESIAN_POINT('',(1.9609656871347E-15,9.5,-51.025));
#587=VECTOR('',#645,1.0);
#588=CARTESIAN_POINT('',(1.28587913910472E-15,-9.5,-2.0));
#589=AXIS2_PLACEMENT_3D('',#646,#647,#648);
#590=CARTESIAN_POINT('',(4.28779460551467E-15,-9.5,-51.025));
#591=VECTOR('',#649,1.0);
#592=COLOUR_RGB('',0.800000011920929,0.800000011920929,0.800000011920929);
#593=AXIS2_PLACEMENT_3D('',#650,#651,#652);
#594=COLOUR_RGB('',0.800000011920929,0.800000011920929,0.800000011920929);
#595=AXIS2_PLACEMENT_3D('',#653,#654,#655);
#596=COLOUR_RGB('',0.800000011920929,0.800000011920929,0.800000011920929);
#597=AXIS2_PLACEMENT_3D('',#656,#657,#658);
#598=COLOUR_RGB('',0.800000011920929,0.800000011920929,0.800000011920929);
#599=DIRECTION('',(6.12323399573676E-17,0.0,-1.0));
#600=CARTESIAN_POINT('',(3.06161699786838E-17,0.0,-0.5));
#601=DIRECTION('',(6.12323399573676E-17,0.0,-1.0));
#602=DIRECTION('',(0.0,1.0,0.0));
#603=DIRECTION('',(-6.12323399573676E-17,-0.0,1.0));
#604=CARTESIAN_POINT('',(1.22464679914735E-16,0.0,-2.0));
#605=DIRECTION('',(6.12323399573676E-17,0.0,-1.0));
#606=DIRECTION('',(0.0,1.0,0.0));
#607=DIRECTION('',(1.29893408435324E-16,-0.707106781186547,-0.707106781186548));
#608=CARTESIAN_POINT('',(0.0,0.0,0.0));
#609=DIRECTION('',(6.12323399573677E-17,0.0,-1.0));
#610=DIRECTION('',(0.0,1.0,0.0));
#611=DIRECTION('',(4.32978028117746E-17,-0.707106781186547,0.707106781186548));
#612=DIRECTION('',(6.12323399573677E-17,0.0,-1.0));
#613=CARTESIAN_POINT('',(-2.85955027600907E-15,0.0,46.7));
#614=DIRECTION('',(6.12323399573677E-17,0.0,-1.0));
#615=DIRECTION('',(0.0,1.0,0.0));
#616=DIRECTION('',(-6.12323399573677E-17,-0.0,1.0));
#617=DIRECTION('',(-4.32978028117746E-17,0.707106781186547,-0.707106781186548));
#618=CARTESIAN_POINT('',(-3.06161699786838E-15,0.0,50.0));
#619=DIRECTION('',(6.12323399573677E-17,0.0,-1.0));
#620=DIRECTION('',(0.0,1.0,0.0));
#621=DIRECTION('',(-1.29893408435324E-16,0.707106781186547,0.707106781186548));
#622=CARTESIAN_POINT('',(-3.06161699786838E-15,0.0,50.0));
#623=DIRECTION('',(6.12323399573677E-17,0.0,-1.0));
#624=DIRECTION('',(0.0,1.0,0.0));
#625=CARTESIAN_POINT('',(-2.85955027600907E-15,0.0,46.7));
#626=DIRECTION('',(6.12323399573677E-17,0.0,-1.0));
#627=DIRECTION('',(0.0,1.0,0.0));
#628=CARTESIAN_POINT('',(0.0,0.0,0.0));
#629=DIRECTION('',(6.12323399573677E-17,0.0,-1.0));
#630=DIRECTION('',(0.0,1.0,0.0));
#631=CARTESIAN_POINT('',(3.06161699786838E-17,0.0,-0.5));
#632=DIRECTION('',(6.12323399573676E-17,0.0,-1.0));
#633=DIRECTION('',(0.0,1.0,0.0));
#634=CARTESIAN_POINT('',(1.22464679914735E-16,0.0,-2.0));
#635=DIRECTION('',(6.12323399573676E-17,0.0,-1.0));
#636=DIRECTION('',(0.0,1.0,0.0));
#637=DIRECTION('',(1.14261101893614E-16,-0.500000000000007,-0.866025403784434));
#638=CARTESIAN_POINT('',(6.12629561273463E-15,0.0,-100.05));
#639=DIRECTION('',(6.12323399573676E-17,0.0,-1.0));
#640=DIRECTION('',(0.0,1.0,0.0));
#641=DIRECTION('',(8.20357802112338E-18,-0.500000000000007,0.866025403784434));
#642=CARTESIAN_POINT('',(6.18446633569413E-15,0.0,-101.0));
#643=DIRECTION('',(6.12323399573677E-17,0.0,-1.0));
#644=DIRECTION('',(0.0,1.0,0.0));
#645=DIRECTION('',(6.12323399573676E-17,0.0,-1.0));
#646=CARTESIAN_POINT('',(1.22464679914735E-16,0.0,-2.0));
#647=DIRECTION('',(6.12323399573676E-17,0.0,-1.0));
#648=DIRECTION('',(0.0,1.0,0.0));
#649=DIRECTION('',(-6.12323399573676E-17,-0.0,1.0));
#650=CARTESIAN_POINT('',(1.22464679914735E-16,0.0,-2.0));
#651=DIRECTION('',(6.12323399573676E-17,0.0,-1.0));
#652=DIRECTION('',(0.0,1.0,0.0));
#653=CARTESIAN_POINT('',(6.12629561273463E-15,0.0,-100.05));
#654=DIRECTION('',(6.12323399573676E-17,0.0,-1.0));
#655=DIRECTION('',(0.0,1.0,0.0));
#656=CARTESIAN_POINT('',(6.18446633569413E-15,0.0,-101.0));
#657=DIRECTION('',(6.12323399573677E-17,0.0,-1.0));
#658=DIRECTION('',(0.0,1.0,0.0));
#659=DIRECTION('',(0.0,0.0,1.0));
#660=DIRECTION('',(1.0,0.0,0.0));
#661=CARTESIAN_POINT('',(0.0,0.0,50.000000));
#662=AXIS2_PLACEMENT_3D('PCS', #661,#659,#660);
#663=CARTESIAN_POINT('',(0.0,0.0,0.000000));
#664=AXIS2_PLACEMENT_3D('MCS', #663,#659,#660);
#665=CARTESIAN_POINT('',(0.0,0.0,-101.000000));
#666=AXIS2_PLACEMENT_3D('CIP', #665,#659,#660);
ENDSEC;
END-ISO-10303-21;
