ISO-10303-21;
HEADER;
FILE_DESCRIPTION(('STEP AP242'),'1');
FILE_NAME('607410255-000-01-E43.stp','2021-11-23T15:13:10',(' '),(' '),'Spatial InterOp 3D',' ',' ');
FILE_SCHEMA(('AP242_MANAGED_MODEL_BASED_3D_ENGINEERING_MIM_LF  {1 0 10303 442 1 1 4}'));
ENDSEC;
DATA;
#1=MECHANICAL_DESIGN_GEOMETRIC_PRESENTATION_REPRESENTATION(' ',(#12,#13,#14,#15,#16,#17,#18,#19,#20,#21,#22,#23,#24),#8);
#2=PRODUCT_DEFINITION_CONTEXT('',#25,'design');
#3=APPLICATION_PROTOCOL_DEFINITION('INTERNATIONAL STANDARD','ap242_managed_model_based_3d_engineering',2014,#25);
#4=PRODUCT_CATEGORY_RELATIONSHIP('NONE','NONE',#26,#27);
#5=SHAPE_DEFINITION_REPRESENTATION(#28,#29);
#6=SHAPE_DEFINITION_REPRESENTATION(#28,#30);
#7=SHAPE_DEFINITION_REPRESENTATION(#28,#31);
#8= (GEOMETRIC_REPRESENTATION_CONTEXT(3)GLOBAL_UNCERTAINTY_ASSIGNED_CONTEXT((#34))GLOBAL_UNIT_ASSIGNED_CONTEXT((#36,#37,#38))REPRESENTATION_CONTEXT('NONE','WORKSPACE'));
#12=STYLED_ITEM('',(#40),#41);
#13=STYLED_ITEM('',(#42),#43);
#14=STYLED_ITEM('',(#44),#45);
#15=STYLED_ITEM('',(#46),#47);
#16=STYLED_ITEM('',(#48),#49);
#17=STYLED_ITEM('',(#50),#51);
#18=STYLED_ITEM('',(#52),#53);
#19=STYLED_ITEM('',(#54),#55);
#20=STYLED_ITEM('',(#56),#57);
#21=STYLED_ITEM('',(#58),#59);
#22=STYLED_ITEM('',(#60),#61);
#23=STYLED_ITEM('',(#62),#63);
#24=STYLED_ITEM('',(#64),#65);
#25=APPLICATION_CONTEXT('managed model based 3d engineering');
#26=PRODUCT_CATEGORY('part','NONE');
#27=PRODUCT_RELATED_PRODUCT_CATEGORY('detail',' ',(#66));
#28=PRODUCT_DEFINITION_SHAPE('NONE','NONE',#67);
#29=ADVANCED_BREP_SHAPE_REPRESENTATION('1',(#68,#69),#8);
#30=ADVANCED_BREP_SHAPE_REPRESENTATION('2',(#70,#71),#8);
#31=GEOMETRICALLY_BOUNDED_SURFACE_SHAPE_REPRESENTATION('3',(#72,#73),#8);
#34=UNCERTAINTY_MEASURE_WITH_UNIT(LENGTH_MEASURE(1.0E-06),#36,'','');
#36= (CONVERSION_BASED_UNIT('MILLIMETRE',#76)LENGTH_UNIT()NAMED_UNIT(#79));
#37= (NAMED_UNIT(#81)PLANE_ANGLE_UNIT()SI_UNIT($,.RADIAN.));
#38= (NAMED_UNIT(#81)SOLID_ANGLE_UNIT()SI_UNIT($,.STERADIAN.));
#40=PRESENTATION_STYLE_ASSIGNMENT((#87));
#41=COMPOSITE_CURVE('',(#88),.U.);
#42=PRESENTATION_STYLE_ASSIGNMENT((#89));
#43=COMPOSITE_CURVE('',(#90),.U.);
#44=PRESENTATION_STYLE_ASSIGNMENT((#91));
#45=ADVANCED_FACE('',(#92),#93,.T.);
#46=PRESENTATION_STYLE_ASSIGNMENT((#94));
#47=ADVANCED_FACE('',(#95),#96,.T.);
#48=PRESENTATION_STYLE_ASSIGNMENT((#97));
#49=ADVANCED_FACE('',(#98),#99,.T.);
#50=PRESENTATION_STYLE_ASSIGNMENT((#100));
#51=ADVANCED_FACE('',(#101),#102,.T.);
#52=PRESENTATION_STYLE_ASSIGNMENT((#103));
#53=ADVANCED_FACE('',(#104),#105,.T.);
#54=PRESENTATION_STYLE_ASSIGNMENT((#106));
#55=ADVANCED_FACE('',(#107),#108,.T.);
#56=PRESENTATION_STYLE_ASSIGNMENT((#109));
#57=ADVANCED_FACE('',(#110),#111,.T.);
#58=PRESENTATION_STYLE_ASSIGNMENT((#112));
#59=ADVANCED_FACE('',(#113),#114,.T.);
#60=PRESENTATION_STYLE_ASSIGNMENT((#115));
#61=ADVANCED_FACE('',(#116),#117,.T.);
#62=PRESENTATION_STYLE_ASSIGNMENT((#118));
#63=ADVANCED_FACE('',(#119),#120,.T.);
#64=PRESENTATION_STYLE_ASSIGNMENT((#121));
#65=ADVANCED_FACE('',(#122),#123,.T.);
#66=PRODUCT('1','','PART--DESC',(#124));
#67=PRODUCT_DEFINITION('','NONE',#125,#2);
#68=MANIFOLD_SOLID_BREP('1',#126);
#69=AXIS2_PLACEMENT_3D('',#127,#128,#129);
#70=MANIFOLD_SOLID_BREP('2',#130);
#71=AXIS2_PLACEMENT_3D('',#131,#132,#133);
#72=GEOMETRIC_SET('3',(#41,#43));
#73=AXIS2_PLACEMENT_3D('',#134,#135,#136);
#76=LENGTH_MEASURE_WITH_UNIT(LENGTH_MEASURE(1.0),#137);
#79=DIMENSIONAL_EXPONENTS(1.0,0.0,0.0,0.0,0.0,0.0,0.0);
#81=DIMENSIONAL_EXPONENTS(0.0,0.0,0.0,0.0,0.0,0.0,0.0);
#87=CURVE_STYLE('',#138,POSITIVE_LENGTH_MEASURE(1.0E-06),#139);
#88=COMPOSITE_CURVE_SEGMENT(.CONTINUOUS.,.T.,#140);
#89=CURVE_STYLE('',#141,POSITIVE_LENGTH_MEASURE(1.0E-06),#142);
#90=COMPOSITE_CURVE_SEGMENT(.CONTINUOUS.,.T.,#143);
#91=SURFACE_STYLE_USAGE(.BOTH.,#144);
#92=FACE_OUTER_BOUND('',#145,.T.);
#93=SPHERICAL_SURFACE('',#146,3.0);
#94=SURFACE_STYLE_USAGE(.BOTH.,#147);
#95=FACE_OUTER_BOUND('',#148,.T.);
#96=CYLINDRICAL_SURFACE('',#149,3.0);
#97=SURFACE_STYLE_USAGE(.BOTH.,#150);
#98=FACE_OUTER_BOUND('',#151,.T.);
#99=PLANE('',#152);
#100=SURFACE_STYLE_USAGE(.BOTH.,#153);
#101=FACE_OUTER_BOUND('',#154,.T.);
#102=CYLINDRICAL_SURFACE('',#155,3.0);
#103=SURFACE_STYLE_USAGE(.BOTH.,#156);
#104=FACE_OUTER_BOUND('',#157,.T.);
#105=SPHERICAL_SURFACE('',#158,3.0);
#106=SURFACE_STYLE_USAGE(.BOTH.,#159);
#107=FACE_OUTER_BOUND('',#160,.T.);
#108=CYLINDRICAL_SURFACE('',#161,3.0);
#109=SURFACE_STYLE_USAGE(.BOTH.,#162);
#110=FACE_OUTER_BOUND('',#163,.T.);
#111=CONICAL_SURFACE('',#164,2.75,0.785398163397449);
#112=SURFACE_STYLE_USAGE(.BOTH.,#165);
#113=FACE_OUTER_BOUND('',#166,.T.);
#114=PLANE('',#167);
#115=SURFACE_STYLE_USAGE(.BOTH.,#168);
#116=FACE_OUTER_BOUND('',#169,.T.);
#117=CONICAL_SURFACE('',#170,2.75,0.785398163397449);
#118=SURFACE_STYLE_USAGE(.BOTH.,#171);
#119=FACE_OUTER_BOUND('',#172,.T.);
#120=CYLINDRICAL_SURFACE('',#173,3.0);
#121=SURFACE_STYLE_USAGE(.BOTH.,#174);
#122=FACE_OUTER_BOUND('',#175,.T.);
#123=PLANE('',#176);
#124=PRODUCT_CONTEXT('',#25,'mechanical');
#125=PRODUCT_DEFINITION_FORMATION_WITH_SPECIFIED_SOURCE(' ','NONE',#66,.NOT_KNOWN.);
#126=CLOSED_SHELL('',(#45,#47,#49,#51,#53));
#127=CARTESIAN_POINT('',(0.0,0.0,0.0));
#128=DIRECTION('',(0.0,0.0,1.0));
#129=DIRECTION('',(1.0,0.0,0.0));
#130=CLOSED_SHELL('',(#55,#57,#59,#61,#63,#65));
#131=CARTESIAN_POINT('',(0.0,0.0,0.0));
#132=DIRECTION('',(0.0,0.0,1.0));
#133=DIRECTION('',(1.0,0.0,0.0));
#134=CARTESIAN_POINT('',(0.0,0.0,0.0));
#135=DIRECTION('',(0.0,0.0,1.0));
#136=DIRECTION('',(1.0,0.0,0.0));
#137= (NAMED_UNIT(#79)LENGTH_UNIT()SI_UNIT(.MILLI.,.METRE.));
#138=DRAUGHTING_PRE_DEFINED_CURVE_FONT('continuous');
#139=COLOUR_RGB('',0.0,1.0,0.0);
#140=TRIMMED_CURVE('',#178,(PARAMETER_VALUE(0.0)),(PARAMETER_VALUE(3.0)),.T.,.UNSPECIFIED.);
#141=DRAUGHTING_PRE_DEFINED_CURVE_FONT('continuous');
#142=COLOUR_RGB('',0.0,1.0,0.0);
#143=TRIMMED_CURVE('',#179,(PARAMETER_VALUE(0.0)),(PARAMETER_VALUE(3.0)),.T.,.UNSPECIFIED.);
#144=SURFACE_SIDE_STYLE('',(#180));
#145=EDGE_LOOP('',(#181,#182,#183));
#146=AXIS2_PLACEMENT_3D('',#184,#185,#186);
#147=SURFACE_SIDE_STYLE('',(#187));
#148=EDGE_LOOP('',(#188,#189,#190,#191,#192));
#149=AXIS2_PLACEMENT_3D('',#193,#194,#195);
#150=SURFACE_SIDE_STYLE('',(#196));
#151=EDGE_LOOP('',(#197,#198));
#152=AXIS2_PLACEMENT_3D('',#199,#200,#201);
#153=SURFACE_SIDE_STYLE('',(#202));
#154=EDGE_LOOP('',(#203,#204,#205,#206,#207));
#155=AXIS2_PLACEMENT_3D('',#208,#209,#210);
#156=SURFACE_SIDE_STYLE('',(#211));
#157=EDGE_LOOP('',(#212,#213,#214));
#158=AXIS2_PLACEMENT_3D('',#215,#216,#217);
#159=SURFACE_SIDE_STYLE('',(#218));
#160=EDGE_LOOP('',(#219,#220,#221,#222));
#161=AXIS2_PLACEMENT_3D('',#223,#224,#225);
#162=SURFACE_SIDE_STYLE('',(#226));
#163=EDGE_LOOP('',(#227,#228,#229,#230));
#164=AXIS2_PLACEMENT_3D('',#231,#232,#233);
#165=SURFACE_SIDE_STYLE('',(#234));
#166=EDGE_LOOP('',(#235,#236));
#167=AXIS2_PLACEMENT_3D('',#237,#238,#239);
#168=SURFACE_SIDE_STYLE('',(#240));
#169=EDGE_LOOP('',(#241,#242,#243,#244));
#170=AXIS2_PLACEMENT_3D('',#245,#246,#247);
#171=SURFACE_SIDE_STYLE('',(#248));
#172=EDGE_LOOP('',(#249,#250,#251,#252));
#173=AXIS2_PLACEMENT_3D('',#253,#254,#255);
#174=SURFACE_SIDE_STYLE('',(#256));
#175=EDGE_LOOP('',(#257,#258));
#176=AXIS2_PLACEMENT_3D('',#259,#260,#261);
#178=LINE('',#262,#263);
#179=LINE('',#264,#265);
#180=SURFACE_STYLE_FILL_AREA(#266);
#181=ORIENTED_EDGE('',*,*,#267,.F.);
#182=ORIENTED_EDGE('',*,*,#268,.T.);
#183=ORIENTED_EDGE('',*,*,#269,.T.);
#184=CARTESIAN_POINT('',(2.38806125833735E-16,0.0,-3.90000000000001));
#185=DIRECTION('',(1.0,0.0,6.12323399573677E-17));
#186=DIRECTION('',(6.12323399573677E-17,0.0,-1.0));
#187=SURFACE_STYLE_FILL_AREA(#270);
#188=ORIENTED_EDGE('',*,*,#271,.F.);
#189=ORIENTED_EDGE('',*,*,#272,.T.);
#190=ORIENTED_EDGE('',*,*,#273,.F.);
#191=ORIENTED_EDGE('',*,*,#274,.F.);
#192=ORIENTED_EDGE('',*,*,#269,.F.);
#193=CARTESIAN_POINT('',(1.19403062916867E-16,0.0,-1.95));
#194=DIRECTION('',(6.12323399573676E-17,0.0,-1.0));
#195=DIRECTION('',(0.0,1.0,0.0));
#196=SURFACE_STYLE_FILL_AREA(#275);
#197=ORIENTED_EDGE('',*,*,#272,.F.);
#198=ORIENTED_EDGE('',*,*,#276,.F.);
#199=CARTESIAN_POINT('',(0.0,1.5,0.0));
#200=DIRECTION('',(-6.12323399573677E-17,0.0,1.0));
#201=DIRECTION('',(0.0,-1.0,0.0));
#202=SURFACE_STYLE_FILL_AREA(#277);
#203=ORIENTED_EDGE('',*,*,#271,.T.);
#204=ORIENTED_EDGE('',*,*,#268,.F.);
#205=ORIENTED_EDGE('',*,*,#278,.F.);
#206=ORIENTED_EDGE('',*,*,#273,.T.);
#207=ORIENTED_EDGE('',*,*,#276,.T.);
#208=CARTESIAN_POINT('',(1.19403062916867E-16,0.0,-1.95));
#209=DIRECTION('',(6.12323399573676E-17,0.0,-1.0));
#210=DIRECTION('',(0.0,1.0,0.0));
#211=SURFACE_STYLE_FILL_AREA(#279);
#212=ORIENTED_EDGE('',*,*,#267,.T.);
#213=ORIENTED_EDGE('',*,*,#274,.T.);
#214=ORIENTED_EDGE('',*,*,#278,.T.);
#215=CARTESIAN_POINT('',(2.38806125833735E-16,0.0,-3.90000000000001));
#216=DIRECTION('',(1.0,0.0,6.12323399573677E-17));
#217=DIRECTION('',(6.12323399573677E-17,0.0,-1.0));
#218=SURFACE_STYLE_FILL_AREA(#280);
#219=ORIENTED_EDGE('',*,*,#281,.F.);
#220=ORIENTED_EDGE('',*,*,#282,.T.);
#221=ORIENTED_EDGE('',*,*,#283,.F.);
#222=ORIENTED_EDGE('',*,*,#284,.F.);
#223=CARTESIAN_POINT('',(-2.83505734002612E-15,0.0,46.3));
#224=DIRECTION('',(6.12323399573676E-17,0.0,-1.0));
#225=DIRECTION('',(0.0,1.0,0.0));
#226=SURFACE_STYLE_FILL_AREA(#285);
#227=ORIENTED_EDGE('',*,*,#286,.F.);
#228=ORIENTED_EDGE('',*,*,#287,.T.);
#229=ORIENTED_EDGE('',*,*,#288,.F.);
#230=ORIENTED_EDGE('',*,*,#282,.F.);
#231=CARTESIAN_POINT('',(-5.68542276504159E-15,0.0,92.85));
#232=DIRECTION('',(6.12323399573677E-17,-0.0,-1.0));
#233=DIRECTION('',(0.0,1.0,0.0));
#234=SURFACE_STYLE_FILL_AREA(#289);
#235=ORIENTED_EDGE('',*,*,#287,.F.);
#236=ORIENTED_EDGE('',*,*,#290,.F.);
#237=CARTESIAN_POINT('',(-5.70073085003093E-15,1.25,93.1));
#238=DIRECTION('',(-6.12323399573677E-17,0.0,1.0));
#239=DIRECTION('',(0.0,-1.0,0.0));
#240=SURFACE_STYLE_FILL_AREA(#291);
#241=ORIENTED_EDGE('',*,*,#286,.T.);
#242=ORIENTED_EDGE('',*,*,#292,.F.);
#243=ORIENTED_EDGE('',*,*,#288,.T.);
#244=ORIENTED_EDGE('',*,*,#290,.T.);
#245=CARTESIAN_POINT('',(-5.68542276504159E-15,0.0,92.85));
#246=DIRECTION('',(6.12323399573677E-17,-0.0,-1.0));
#247=DIRECTION('',(0.0,1.0,0.0));
#248=SURFACE_STYLE_FILL_AREA(#293);
#249=ORIENTED_EDGE('',*,*,#281,.T.);
#250=ORIENTED_EDGE('',*,*,#294,.F.);
#251=ORIENTED_EDGE('',*,*,#283,.T.);
#252=ORIENTED_EDGE('',*,*,#292,.T.);
#253=CARTESIAN_POINT('',(-2.83505734002612E-15,0.0,46.3));
#254=DIRECTION('',(6.12323399573676E-17,0.0,-1.0));
#255=DIRECTION('',(0.0,1.0,0.0));
#256=SURFACE_STYLE_FILL_AREA(#295);
#257=ORIENTED_EDGE('',*,*,#284,.T.);
#258=ORIENTED_EDGE('',*,*,#294,.T.);
#259=CARTESIAN_POINT('',(0.0,1.5,0.0));
#260=DIRECTION('',(6.12323399573677E-17,0.0,-1.0));
#261=DIRECTION('',(0.0,1.0,0.0));
#262=CARTESIAN_POINT('',(0.0,3.0,0.0));
#263=VECTOR('',#296,1.0);
#264=CARTESIAN_POINT('',(0.0,-3.0,0.0));
#265=VECTOR('',#297,1.0);
#266=FILL_AREA_STYLE('',(#298));
#267=EDGE_CURVE('',#299,#300,#301,.T.);
#268=EDGE_CURVE('',#299,#302,#303,.T.);
#269=EDGE_CURVE('',#302,#300,#304,.T.);
#270=FILL_AREA_STYLE('',(#305));
#271=EDGE_CURVE('',#306,#302,#307,.T.);
#272=EDGE_CURVE('',#306,#308,#309,.T.);
#273=EDGE_CURVE('',#310,#308,#311,.T.);
#274=EDGE_CURVE('',#300,#310,#312,.T.);
#275=FILL_AREA_STYLE('',(#313));
#276=EDGE_CURVE('',#308,#306,#314,.T.);
#277=FILL_AREA_STYLE('',(#315));
#278=EDGE_CURVE('',#310,#299,#316,.T.);
#279=FILL_AREA_STYLE('',(#317));
#280=FILL_AREA_STYLE('',(#318));
#281=EDGE_CURVE('',#319,#320,#321,.T.);
#282=EDGE_CURVE('',#319,#322,#323,.T.);
#283=EDGE_CURVE('',#324,#322,#325,.T.);
#284=EDGE_CURVE('',#320,#324,#326,.T.);
#285=FILL_AREA_STYLE('',(#327));
#286=EDGE_CURVE('',#328,#319,#329,.T.);
#287=EDGE_CURVE('',#328,#330,#331,.T.);
#288=EDGE_CURVE('',#322,#330,#332,.T.);
#289=FILL_AREA_STYLE('',(#333));
#290=EDGE_CURVE('',#330,#328,#334,.T.);
#291=FILL_AREA_STYLE('',(#335));
#292=EDGE_CURVE('',#322,#319,#336,.T.);
#293=FILL_AREA_STYLE('',(#337));
#294=EDGE_CURVE('',#324,#320,#338,.T.);
#295=FILL_AREA_STYLE('',(#339));
#296=DIRECTION('',(0.0,-1.0,0.0));
#297=DIRECTION('',(0.0,1.0,0.0));
#298=FILL_AREA_STYLE_COLOUR('',#340);
#299=VERTEX_POINT('',#341);
#300=VERTEX_POINT('',#342);
#301=CIRCLE('',#343,3.0);
#302=VERTEX_POINT('',#344);
#303=CIRCLE('',#345,3.0);
#304=CIRCLE('',#346,3.0);
#305=FILL_AREA_STYLE_COLOUR('',#347);
#306=VERTEX_POINT('',#348);
#307=LINE('',#349,#350);
#308=VERTEX_POINT('',#351);
#309=CIRCLE('',#352,3.0);
#310=VERTEX_POINT('',#353);
#311=LINE('',#354,#355);
#312=CIRCLE('',#356,3.0);
#313=FILL_AREA_STYLE_COLOUR('',#357);
#314=CIRCLE('',#358,3.0);
#315=FILL_AREA_STYLE_COLOUR('',#359);
#316=CIRCLE('',#360,3.0);
#317=FILL_AREA_STYLE_COLOUR('',#361);
#318=FILL_AREA_STYLE_COLOUR('',#362);
#319=VERTEX_POINT('',#363);
#320=VERTEX_POINT('',#364);
#321=LINE('',#365,#366);
#322=VERTEX_POINT('',#367);
#323=CIRCLE('',#368,3.0);
#324=VERTEX_POINT('',#369);
#325=LINE('',#370,#371);
#326=CIRCLE('',#372,3.0);
#327=FILL_AREA_STYLE_COLOUR('',#373);
#328=VERTEX_POINT('',#374);
#329=LINE('',#375,#376);
#330=VERTEX_POINT('',#377);
#331=CIRCLE('',#378,2.5);
#332=LINE('',#379,#380);
#333=FILL_AREA_STYLE_COLOUR('',#381);
#334=CIRCLE('',#382,2.5);
#335=FILL_AREA_STYLE_COLOUR('',#383);
#336=CIRCLE('',#384,3.0);
#337=FILL_AREA_STYLE_COLOUR('',#385);
#338=CIRCLE('',#386,3.0);
#339=FILL_AREA_STYLE_COLOUR('',#387);
#340=COLOUR_RGB('',0.800000011920929,0.800000011920929,0.800000011920929);
#341=CARTESIAN_POINT('',(-3.0,3.3356783110304E-48,-3.90000000000001));
#342=CARTESIAN_POINT('',(3.0,-4.87505487837282E-48,-3.90000000000001));
#343=AXIS2_PLACEMENT_3D('',#388,#389,#390);
#344=CARTESIAN_POINT('',(2.38806125833735E-16,3.0,-3.90000000000001));
#345=AXIS2_PLACEMENT_3D('',#391,#392,#393);
#346=AXIS2_PLACEMENT_3D('',#394,#395,#396);
#347=COLOUR_RGB('',0.800000011920929,0.800000011920929,0.800000011920929);
#348=CARTESIAN_POINT('',(0.0,3.0,0.0));
#349=CARTESIAN_POINT('',(-2.47990976827338E-16,3.0,-1.95));
#350=VECTOR('',#397,1.0);
#351=CARTESIAN_POINT('',(3.67394039744206E-16,-3.0,2.24963967399279E-32));
#352=AXIS2_PLACEMENT_3D('',#398,#399,#400);
#353=CARTESIAN_POINT('',(6.0620016557794E-16,-3.0,-3.90000000000001));
#354=CARTESIAN_POINT('',(4.86797102661073E-16,-3.0,-1.95));
#355=VECTOR('',#401,1.0);
#356=AXIS2_PLACEMENT_3D('',#402,#403,#404);
#357=COLOUR_RGB('',0.800000011920929,0.800000011920929,0.800000011920929);
#358=AXIS2_PLACEMENT_3D('',#405,#406,#407);
#359=COLOUR_RGB('',0.800000011920929,0.800000011920929,0.800000011920929);
#360=AXIS2_PLACEMENT_3D('',#408,#409,#410);
#361=COLOUR_RGB('',0.800000011920929,0.800000011920929,0.800000011920929);
#362=COLOUR_RGB('',0.498039215803146,0.498039215803146,0.498039215803146);
#363=CARTESIAN_POINT('',(-5.67011468005224E-15,3.0,92.6));
#364=CARTESIAN_POINT('',(0.0,3.0,0.0));
#365=CARTESIAN_POINT('',(-3.20245137977033E-15,3.0,46.3));
#366=VECTOR('',#411,1.0);
#367=CARTESIAN_POINT('',(-5.30272064030804E-15,-3.0,92.6));
#368=AXIS2_PLACEMENT_3D('',#412,#413,#414);
#369=CARTESIAN_POINT('',(3.67394039744206E-16,-3.0,2.24963967399279E-32));
#370=CARTESIAN_POINT('',(-2.46766330028192E-15,-3.0,46.3));
#371=VECTOR('',#415,1.0);
#372=AXIS2_PLACEMENT_3D('',#416,#417,#418);
#373=COLOUR_RGB('',0.498039215803146,0.498039215803146,0.498039215803146);
#374=CARTESIAN_POINT('',(-5.70073085003093E-15,2.5,93.1));
#375=CARTESIAN_POINT('',(-6.02220063480711E-15,2.75,92.85));
#376=VECTOR('',#419,1.0);
#377=CARTESIAN_POINT('',(-5.39456915024409E-15,-2.5,93.1));
#378=AXIS2_PLACEMENT_3D('',#420,#421,#422);
#379=CARTESIAN_POINT('',(-5.34864489527606E-15,-2.75,92.85));
#380=VECTOR('',#423,1.0);
#381=COLOUR_RGB('',0.498039215803146,0.498039215803146,0.498039215803146);
#382=AXIS2_PLACEMENT_3D('',#424,#425,#426);
#383=COLOUR_RGB('',0.498039215803146,0.498039215803146,0.498039215803146);
#384=AXIS2_PLACEMENT_3D('',#427,#428,#429);
#385=COLOUR_RGB('',0.498039215803146,0.498039215803146,0.498039215803146);
#386=AXIS2_PLACEMENT_3D('',#430,#431,#432);
#387=COLOUR_RGB('',0.498039215803146,0.498039215803146,0.498039215803146);
#388=CARTESIAN_POINT('',(2.38806125833735E-16,0.0,-3.90000000000001));
#389=DIRECTION('',(-7.49879891330929E-33,-1.0,1.22464679914735E-16));
#390=DIRECTION('',(0.0,1.22464679914735E-16,1.0));
#391=CARTESIAN_POINT('',(2.38806125833735E-16,0.0,-3.90000000000001));
#392=DIRECTION('',(6.12323399573676E-17,0.0,-1.0));
#393=DIRECTION('',(0.0,1.0,0.0));
#394=CARTESIAN_POINT('',(2.38806125833735E-16,0.0,-3.90000000000001));
#395=DIRECTION('',(6.12323399573676E-17,0.0,-1.0));
#396=DIRECTION('',(0.0,1.0,0.0));
#397=DIRECTION('',(6.12323399573676E-17,0.0,-1.0));
#398=CARTESIAN_POINT('',(0.0,0.0,0.0));
#399=DIRECTION('',(6.12323399573676E-17,0.0,-1.0));
#400=DIRECTION('',(0.0,1.0,0.0));
#401=DIRECTION('',(-6.12323399573676E-17,-0.0,1.0));
#402=CARTESIAN_POINT('',(2.38806125833735E-16,0.0,-3.90000000000001));
#403=DIRECTION('',(6.12323399573676E-17,0.0,-1.0));
#404=DIRECTION('',(0.0,1.0,0.0));
#405=CARTESIAN_POINT('',(0.0,0.0,0.0));
#406=DIRECTION('',(6.12323399573676E-17,0.0,-1.0));
#407=DIRECTION('',(0.0,1.0,0.0));
#408=CARTESIAN_POINT('',(2.38806125833735E-16,0.0,-3.90000000000001));
#409=DIRECTION('',(6.12323399573676E-17,0.0,-1.0));
#410=DIRECTION('',(0.0,1.0,0.0));
#411=DIRECTION('',(6.12323399573676E-17,0.0,-1.0));
#412=CARTESIAN_POINT('',(-5.67011468005224E-15,0.0,92.6));
#413=DIRECTION('',(6.12323399573676E-17,0.0,-1.0));
#414=DIRECTION('',(0.0,1.0,0.0));
#415=DIRECTION('',(-6.12323399573676E-17,-0.0,1.0));
#416=CARTESIAN_POINT('',(0.0,0.0,0.0));
#417=DIRECTION('',(6.12323399573676E-17,0.0,-1.0));
#418=DIRECTION('',(0.0,1.0,0.0));
#419=DIRECTION('',(-4.32978028117748E-17,0.707106781186547,-0.707106781186548));
#420=CARTESIAN_POINT('',(-5.70073085003093E-15,0.0,93.1));
#421=DIRECTION('',(6.12323399573677E-17,0.0,-1.0));
#422=DIRECTION('',(0.0,1.0,0.0));
#423=DIRECTION('',(-1.29893408435324E-16,0.707106781186547,0.707106781186548));
#424=CARTESIAN_POINT('',(-5.70073085003093E-15,0.0,93.1));
#425=DIRECTION('',(6.12323399573677E-17,0.0,-1.0));
#426=DIRECTION('',(0.0,1.0,0.0));
#427=CARTESIAN_POINT('',(-5.67011468005224E-15,0.0,92.6));
#428=DIRECTION('',(6.12323399573676E-17,0.0,-1.0));
#429=DIRECTION('',(0.0,1.0,0.0));
#430=CARTESIAN_POINT('',(0.0,0.0,0.0));
#431=DIRECTION('',(6.12323399573676E-17,0.0,-1.0));
#432=DIRECTION('',(0.0,1.0,0.0));
#433=DIRECTION('',(0.0,0.0,1.0));
#434=DIRECTION('',(1.0,0.0,0.0));
#435=CARTESIAN_POINT('',(0.0,0.0,93.100000));
#436=AXIS2_PLACEMENT_3D('PCS', #435,#433,#434);
#437=CARTESIAN_POINT('',(0.0,0.0,0.000000));
#438=AXIS2_PLACEMENT_3D('MCS', #437,#433,#434);
#439=CARTESIAN_POINT('',(0.0,0.0,-6.900000));
#440=AXIS2_PLACEMENT_3D('CIP', #439,#433,#434);
ENDSEC;
END-ISO-10303-21;
