ISO-10303-21;
HEADER;
FILE_DESCRIPTION(('STEP AP214'),'1');
FILE_NAME('607817196-000-00-E43.stp','2022-10-20T13:41:34',(' '),(' '),'Spatial InterOp 3D',' ',' ');
FILE_SCHEMA(('AUTOMOTIVE_DESIGN { 1 0 10303 214 1 1 1 1 }'));
ENDSEC;
DATA;
#1=MECHANICAL_DESIGN_GEOMETRIC_PRESENTATION_REPRESENTATION(' ',(#12,#13,#14,#15,#16,#17,#18,#19,#20,#21,#22,#23,#24,#25,#26,#27,#28,#29,#30,#31,#32,#33),#8);
#2=PRODUCT_DEFINITION_CONTEXT('',#34,'design');
#3=APPLICATION_PROTOCOL_DEFINITION('INTERNATIONAL STANDARD','automotive_design',1994,#34);
#4=PRODUCT_CATEGORY_RELATIONSHIP('NONE','NONE',#35,#36);
#5=SHAPE_DEFINITION_REPRESENTATION(#37,#38);
#6=SHAPE_DEFINITION_REPRESENTATION(#37,#39);
#7=SHAPE_DEFINITION_REPRESENTATION(#37,#40);
#8= (GEOMETRIC_REPRESENTATION_CONTEXT(3)GLOBAL_UNCERTAINTY_ASSIGNED_CONTEXT((#43))GLOBAL_UNIT_ASSIGNED_CONTEXT((#45,#46,#47))REPRESENTATION_CONTEXT('NONE','WORKSPACE'));
#12=STYLED_ITEM('',(#49),#50);
#13=STYLED_ITEM('',(#51),#52);
#14=STYLED_ITEM('',(#53),#54);
#15=STYLED_ITEM('',(#55),#56);
#16=STYLED_ITEM('',(#57),#58);
#17=STYLED_ITEM('',(#59),#60);
#18=STYLED_ITEM('',(#61),#62);
#19=STYLED_ITEM('',(#63),#64);
#20=STYLED_ITEM('',(#65),#66);
#21=STYLED_ITEM('',(#67),#68);
#22=STYLED_ITEM('',(#69),#70);
#23=STYLED_ITEM('',(#71),#72);
#24=STYLED_ITEM('',(#73),#74);
#25=STYLED_ITEM('',(#75),#76);
#26=STYLED_ITEM('',(#77),#78);
#27=STYLED_ITEM('',(#79),#80);
#28=STYLED_ITEM('',(#81),#82);
#29=STYLED_ITEM('',(#83),#84);
#30=STYLED_ITEM('',(#85),#86);
#31=STYLED_ITEM('',(#87),#88);
#32=STYLED_ITEM('',(#89),#90);
#33=STYLED_ITEM('',(#91),#92);
#34=APPLICATION_CONTEXT(' ');
#35=PRODUCT_CATEGORY('part','NONE');
#36=PRODUCT_RELATED_PRODUCT_CATEGORY('detail',' ',(#93));
#37=PRODUCT_DEFINITION_SHAPE('NONE','NONE',#94);
#38=ADVANCED_BREP_SHAPE_REPRESENTATION('1',(#95,#96),#8);
#39=ADVANCED_BREP_SHAPE_REPRESENTATION('2',(#97,#98),#8);
#40=GEOMETRICALLY_BOUNDED_SURFACE_SHAPE_REPRESENTATION('3',(#99,#100),#8);
#43=UNCERTAINTY_MEASURE_WITH_UNIT(LENGTH_MEASURE(1.0E-06),#45,'','');
#45= (CONVERSION_BASED_UNIT('MILLIMETRE',#103)LENGTH_UNIT()NAMED_UNIT(#106));
#46= (NAMED_UNIT(#108)PLANE_ANGLE_UNIT()SI_UNIT($,.RADIAN.));
#47= (NAMED_UNIT(#108)SOLID_ANGLE_UNIT()SI_UNIT($,.STERADIAN.));
#49=PRESENTATION_STYLE_ASSIGNMENT((#114));
#50=COMPOSITE_CURVE('',(#115),.U.);
#51=PRESENTATION_STYLE_ASSIGNMENT((#116));
#52=COMPOSITE_CURVE('',(#117),.U.);
#53=PRESENTATION_STYLE_ASSIGNMENT((#118));
#54=COMPOSITE_CURVE('',(#119),.U.);
#55=PRESENTATION_STYLE_ASSIGNMENT((#120));
#56=COMPOSITE_CURVE('',(#121),.U.);
#57=PRESENTATION_STYLE_ASSIGNMENT((#122));
#58=COMPOSITE_CURVE('',(#123),.U.);
#59=PRESENTATION_STYLE_ASSIGNMENT((#124));
#60=COMPOSITE_CURVE('',(#125),.U.);
#61=PRESENTATION_STYLE_ASSIGNMENT((#126));
#62=COMPOSITE_CURVE('',(#127),.U.);
#63=PRESENTATION_STYLE_ASSIGNMENT((#128));
#64=COMPOSITE_CURVE('',(#129),.U.);
#65=PRESENTATION_STYLE_ASSIGNMENT((#130));
#66=COMPOSITE_CURVE('',(#131),.U.);
#67=PRESENTATION_STYLE_ASSIGNMENT((#132));
#68=COMPOSITE_CURVE('',(#133),.U.);
#69=PRESENTATION_STYLE_ASSIGNMENT((#134));
#70=COMPOSITE_CURVE('',(#135),.U.);
#71=PRESENTATION_STYLE_ASSIGNMENT((#136));
#72=ADVANCED_FACE('',(#137),#138,.T.);
#73=PRESENTATION_STYLE_ASSIGNMENT((#139));
#74=ADVANCED_FACE('',(#140),#141,.T.);
#75=PRESENTATION_STYLE_ASSIGNMENT((#142));
#76=ADVANCED_FACE('',(#143),#144,.T.);
#77=PRESENTATION_STYLE_ASSIGNMENT((#145));
#78=ADVANCED_FACE('',(#146),#147,.T.);
#79=PRESENTATION_STYLE_ASSIGNMENT((#148));
#80=ADVANCED_FACE('',(#149),#150,.T.);
#81=PRESENTATION_STYLE_ASSIGNMENT((#151));
#82=ADVANCED_FACE('',(#152),#153,.T.);
#83=PRESENTATION_STYLE_ASSIGNMENT((#154));
#84=ADVANCED_FACE('',(#155),#156,.T.);
#85=PRESENTATION_STYLE_ASSIGNMENT((#157));
#86=ADVANCED_FACE('',(#158),#159,.T.);
#87=PRESENTATION_STYLE_ASSIGNMENT((#160));
#88=ADVANCED_FACE('',(#161),#162,.T.);
#89=PRESENTATION_STYLE_ASSIGNMENT((#163));
#90=ADVANCED_FACE('',(#164),#165,.T.);
#91=PRESENTATION_STYLE_ASSIGNMENT((#166));
#92=ADVANCED_FACE('',(#167),#168,.T.);
#93=PRODUCT('1','','PART--DESC',(#169));
#94=PRODUCT_DEFINITION('','NONE',#170,#2);
#95=MANIFOLD_SOLID_BREP('1',#171);
#96=AXIS2_PLACEMENT_3D('',#172,#173,#174);
#97=MANIFOLD_SOLID_BREP('2',#175);
#98=AXIS2_PLACEMENT_3D('',#176,#177,#178);
#99=GEOMETRIC_SET('3',(#50,#52,#54,#56,#58,#60,#62,#64,#66,#68,#70));
#100=AXIS2_PLACEMENT_3D('',#179,#180,#181);
#103=LENGTH_MEASURE_WITH_UNIT(LENGTH_MEASURE(1.0),#182);
#106=DIMENSIONAL_EXPONENTS(1.0,0.0,0.0,0.0,0.0,0.0,0.0);
#108=DIMENSIONAL_EXPONENTS(0.0,0.0,0.0,0.0,0.0,0.0,0.0);
#114=CURVE_STYLE('',#183,POSITIVE_LENGTH_MEASURE(1.0E-06),#184);
#115=COMPOSITE_CURVE_SEGMENT(.CONTINUOUS.,.T.,#185);
#116=CURVE_STYLE('',#186,POSITIVE_LENGTH_MEASURE(1.0E-06),#187);
#117=COMPOSITE_CURVE_SEGMENT(.CONTINUOUS.,.T.,#188);
#118=CURVE_STYLE('',#189,POSITIVE_LENGTH_MEASURE(1.0E-06),#190);
#119=COMPOSITE_CURVE_SEGMENT(.CONTINUOUS.,.T.,#191);
#120=CURVE_STYLE('',#192,POSITIVE_LENGTH_MEASURE(1.0E-06),#193);
#121=COMPOSITE_CURVE_SEGMENT(.CONTINUOUS.,.T.,#194);
#122=CURVE_STYLE('',#195,POSITIVE_LENGTH_MEASURE(1.0E-06),#196);
#123=COMPOSITE_CURVE_SEGMENT(.CONTINUOUS.,.T.,#197);
#124=CURVE_STYLE('',#198,POSITIVE_LENGTH_MEASURE(1.0E-06),#199);
#125=COMPOSITE_CURVE_SEGMENT(.CONTINUOUS.,.T.,#200);
#126=CURVE_STYLE('',#201,POSITIVE_LENGTH_MEASURE(1.0E-06),#202);
#127=COMPOSITE_CURVE_SEGMENT(.CONTINUOUS.,.T.,#203);
#128=CURVE_STYLE('',#204,POSITIVE_LENGTH_MEASURE(1.0E-06),#205);
#129=COMPOSITE_CURVE_SEGMENT(.CONTINUOUS.,.T.,#206);
#130=CURVE_STYLE('',#207,POSITIVE_LENGTH_MEASURE(1.0E-06),#208);
#131=COMPOSITE_CURVE_SEGMENT(.CONTINUOUS.,.T.,#209);
#132=CURVE_STYLE('',#210,POSITIVE_LENGTH_MEASURE(1.0E-06),#211);
#133=COMPOSITE_CURVE_SEGMENT(.CONTINUOUS.,.T.,#212);
#134=CURVE_STYLE('',#213,POSITIVE_LENGTH_MEASURE(1.0E-06),#214);
#135=COMPOSITE_CURVE_SEGMENT(.CONTINUOUS.,.T.,#215);
#136=SURFACE_STYLE_USAGE(.BOTH.,#216);
#137=FACE_OUTER_BOUND('',#217,.T.);
#138=CONICAL_SURFACE('',#218,4.0,1.22173047639603);
#139=SURFACE_STYLE_USAGE(.BOTH.,#219);
#140=FACE_OUTER_BOUND('',#220,.T.);
#141=CYLINDRICAL_SURFACE('',#221,8.0);
#142=SURFACE_STYLE_USAGE(.BOTH.,#222);
#143=FACE_OUTER_BOUND('',#223,.T.);
#144=CYLINDRICAL_SURFACE('',#224,8.0);
#145=SURFACE_STYLE_USAGE(.BOTH.,#225);
#146=FACE_OUTER_BOUND('',#226,.T.);
#147=CONICAL_SURFACE('',#227,4.0,1.22173047639603);
#148=SURFACE_STYLE_USAGE(.BOTH.,#228);
#149=FACE_OUTER_BOUND('',#229,.T.);
#150=PLANE('',#230);
#151=SURFACE_STYLE_USAGE(.BOTH.,#231);
#152=FACE_OUTER_BOUND('',#232,.T.);
#153=CYLINDRICAL_SURFACE('',#233,8.0);
#154=SURFACE_STYLE_USAGE(.BOTH.,#234);
#155=FACE_OUTER_BOUND('',#235,.T.);
#156=CONICAL_SURFACE('',#236,6.45,0.785398163397448);
#157=SURFACE_STYLE_USAGE(.BOTH.,#237);
#158=FACE_OUTER_BOUND('',#238,.T.);
#159=PLANE('',#239);
#160=SURFACE_STYLE_USAGE(.BOTH.,#240);
#161=FACE_OUTER_BOUND('',#241,.T.);
#162=CONICAL_SURFACE('',#242,6.45,0.785398163397448);
#163=SURFACE_STYLE_USAGE(.BOTH.,#243);
#164=FACE_OUTER_BOUND('',#244,.T.);
#165=CYLINDRICAL_SURFACE('',#245,8.0);
#166=SURFACE_STYLE_USAGE(.BOTH.,#246);
#167=FACE_OUTER_BOUND('',#247,.T.);
#168=PLANE('',#248);
#169=PRODUCT_CONTEXT('',#34,'mechanical');
#170=PRODUCT_DEFINITION_FORMATION_WITH_SPECIFIED_SOURCE(' ','NONE',#93,.NOT_KNOWN.);
#171=CLOSED_SHELL('',(#72,#74,#76,#78,#80));
#172=CARTESIAN_POINT('',(0.0,0.0,0.0));
#173=DIRECTION('',(0.0,0.0,1.0));
#174=DIRECTION('',(1.0,0.0,0.0));
#175=CLOSED_SHELL('',(#82,#84,#86,#88,#90,#92));
#176=CARTESIAN_POINT('',(0.0,0.0,0.0));
#177=DIRECTION('',(0.0,0.0,1.0));
#178=DIRECTION('',(1.0,0.0,0.0));
#179=CARTESIAN_POINT('',(0.0,0.0,0.0));
#180=DIRECTION('',(0.0,0.0,1.0));
#181=DIRECTION('',(1.0,0.0,0.0));
#182= (NAMED_UNIT(#106)LENGTH_UNIT()SI_UNIT(.MILLI.,.METRE.));
#183=DRAUGHTING_PRE_DEFINED_CURVE_FONT('continuous');
#184=COLOUR_RGB('',0.0,0.0,1.0);
#185=TRIMMED_CURVE('',#250,(PARAMETER_VALUE(0.0)),(PARAMETER_VALUE(8.5134221798073)),.T.,.UNSPECIFIED.);
#186=DRAUGHTING_PRE_DEFINED_CURVE_FONT('continuous');
#187=COLOUR_RGB('',0.498039215803146,0.498039215803146,0.498039215803146);
#188=TRIMMED_CURVE('',#251,(PARAMETER_VALUE(0.0)),(PARAMETER_VALUE(13.0882381258704)),.T.,.UNSPECIFIED.);
#189=DRAUGHTING_PRE_DEFINED_CURVE_FONT('continuous');
#190=COLOUR_RGB('',0.0,0.0,1.0);
#191=TRIMMED_CURVE('',#252,(PARAMETER_VALUE(0.0)),(PARAMETER_VALUE(8.0)),.T.,.UNSPECIFIED.);
#192=DRAUGHTING_PRE_DEFINED_CURVE_FONT('continuous');
#193=COLOUR_RGB('',0.498039215803146,0.498039215803146,0.498039215803146);
#194=TRIMMED_CURVE('',#253,(PARAMETER_VALUE(0.0)),(PARAMETER_VALUE(8.0)),.T.,.UNSPECIFIED.);
#195=DRAUGHTING_PRE_DEFINED_CURVE_FONT('continuous');
#196=COLOUR_RGB('',0.0,0.0,1.0);
#197=TRIMMED_CURVE('',#254,(PARAMETER_VALUE(0.0)),(PARAMETER_VALUE(51.0)),.T.,.UNSPECIFIED.);
#198=DRAUGHTING_PRE_DEFINED_CURVE_FONT('continuous');
#199=COLOUR_RGB('',0.0,0.0,1.0);
#200=TRIMMED_CURVE('',#255,(PARAMETER_VALUE(0.0)),(PARAMETER_VALUE(53.9117618741296)),.T.,.UNSPECIFIED.);
#201=DRAUGHTING_PRE_DEFINED_CURVE_FONT('continuous');
#202=COLOUR_RGB('',0.498039215803146,0.498039215803146,0.498039215803146);
#203=TRIMMED_CURVE('',#256,(PARAMETER_VALUE(0.0)),(PARAMETER_VALUE(61.0882381258704)),.T.,.UNSPECIFIED.);
#204=DRAUGHTING_PRE_DEFINED_CURVE_FONT('continuous');
#205=COLOUR_RGB('',0.498039215803146,0.498039215803146,0.498039215803146);
#206=TRIMMED_CURVE('',#257,(PARAMETER_VALUE(0.0)),(PARAMETER_VALUE(4.9)),.T.,.UNSPECIFIED.);
#207=DRAUGHTING_PRE_DEFINED_CURVE_FONT('continuous');
#208=COLOUR_RGB('',0.498039215803146,0.498039215803146,0.498039215803146);
#209=TRIMMED_CURVE('',#258,(PARAMETER_VALUE(0.0)),(PARAMETER_VALUE(4.3840620433566)),.T.,.UNSPECIFIED.);
#210=DRAUGHTING_PRE_DEFINED_CURVE_FONT('continuous');
#211=COLOUR_RGB('',0.498039215803146,0.498039215803146,0.498039215803146);
#212=TRIMMED_CURVE('',#259,(PARAMETER_VALUE(0.0)),(PARAMETER_VALUE(44.9)),.T.,.UNSPECIFIED.);
#213=DRAUGHTING_PRE_DEFINED_CURVE_FONT('continuous');
#214=COLOUR_RGB('',0.0,1.0,0.0);
#215=TRIMMED_CURVE('',#260,(PARAMETER_VALUE(0.0)),(PARAMETER_VALUE(8.0)),.T.,.UNSPECIFIED.);
#216=SURFACE_SIDE_STYLE('',(#261));
#217=EDGE_LOOP('',(#262,#263,#264));
#218=AXIS2_PLACEMENT_3D('',#265,#266,#267);
#219=SURFACE_SIDE_STYLE('',(#268));
#220=EDGE_LOOP('',(#269,#270,#271,#272));
#221=AXIS2_PLACEMENT_3D('',#273,#274,#275);
#222=SURFACE_SIDE_STYLE('',(#276));
#223=EDGE_LOOP('',(#277,#278,#279,#280));
#224=AXIS2_PLACEMENT_3D('',#281,#282,#283);
#225=SURFACE_SIDE_STYLE('',(#284));
#226=EDGE_LOOP('',(#285,#286,#287));
#227=AXIS2_PLACEMENT_3D('',#288,#289,#290);
#228=SURFACE_SIDE_STYLE('',(#291));
#229=EDGE_LOOP('',(#292,#293));
#230=AXIS2_PLACEMENT_3D('',#294,#295,#296);
#231=SURFACE_SIDE_STYLE('',(#297));
#232=EDGE_LOOP('',(#298,#299,#300,#301));
#233=AXIS2_PLACEMENT_3D('',#302,#303,#304);
#234=SURFACE_SIDE_STYLE('',(#305));
#235=EDGE_LOOP('',(#306,#307,#308,#309));
#236=AXIS2_PLACEMENT_3D('',#310,#311,#312);
#237=SURFACE_SIDE_STYLE('',(#313));
#238=EDGE_LOOP('',(#314,#315));
#239=AXIS2_PLACEMENT_3D('',#316,#317,#318);
#240=SURFACE_SIDE_STYLE('',(#319));
#241=EDGE_LOOP('',(#320,#321,#322,#323));
#242=AXIS2_PLACEMENT_3D('',#324,#325,#326);
#243=SURFACE_SIDE_STYLE('',(#327));
#244=EDGE_LOOP('',(#328,#329,#330,#331));
#245=AXIS2_PLACEMENT_3D('',#332,#333,#334);
#246=SURFACE_SIDE_STYLE('',(#335));
#247=EDGE_LOOP('',(#336,#337));
#248=AXIS2_PLACEMENT_3D('',#338,#339,#340);
#250=LINE('',#341,#342);
#251=LINE('',#343,#344);
#252=LINE('',#345,#346);
#253=LINE('',#347,#348);
#254=LINE('',#349,#350);
#255=LINE('',#351,#352);
#256=LINE('',#353,#354);
#257=LINE('',#355,#356);
#258=LINE('',#357,#358);
#259=LINE('',#359,#360);
#260=LINE('',#361,#362);
#261=SURFACE_STYLE_FILL_AREA(#363);
#262=ORIENTED_EDGE('',*,*,#364,.F.);
#263=ORIENTED_EDGE('',*,*,#365,.F.);
#264=ORIENTED_EDGE('',*,*,#366,.T.);
#265=CARTESIAN_POINT('',(4.01341978066783E-15,0.0,-65.5441190629352));
#266=DIRECTION('',(-6.12323399573677E-17,-0.0,1.0));
#267=DIRECTION('',(0.0,1.0,0.0));
#268=SURFACE_STYLE_FILL_AREA(#367);
#269=ORIENTED_EDGE('',*,*,#368,.F.);
#270=ORIENTED_EDGE('',*,*,#369,.T.);
#271=ORIENTED_EDGE('',*,*,#370,.F.);
#272=ORIENTED_EDGE('',*,*,#366,.F.);
#273=CARTESIAN_POINT('',(2.36284811527915E-15,0.0,-38.5882381258704));
#274=DIRECTION('',(6.12323399573677E-17,0.0,-1.0));
#275=DIRECTION('',(0.0,1.0,0.0));
#276=SURFACE_STYLE_FILL_AREA(#371);
#277=ORIENTED_EDGE('',*,*,#368,.T.);
#278=ORIENTED_EDGE('',*,*,#372,.F.);
#279=ORIENTED_EDGE('',*,*,#370,.T.);
#280=ORIENTED_EDGE('',*,*,#373,.T.);
#281=CARTESIAN_POINT('',(2.36284811527915E-15,0.0,-38.5882381258704));
#282=DIRECTION('',(6.12323399573677E-17,0.0,-1.0));
#283=DIRECTION('',(0.0,1.0,0.0));
#284=SURFACE_STYLE_FILL_AREA(#374);
#285=ORIENTED_EDGE('',*,*,#364,.T.);
#286=ORIENTED_EDGE('',*,*,#372,.T.);
#287=ORIENTED_EDGE('',*,*,#365,.T.);
#288=CARTESIAN_POINT('',(4.01341978066783E-15,0.0,-65.5441190629352));
#289=DIRECTION('',(-6.12323399573677E-17,-0.0,1.0));
#290=DIRECTION('',(0.0,1.0,0.0));
#291=SURFACE_STYLE_FILL_AREA(#375);
#292=ORIENTED_EDGE('',*,*,#369,.F.);
#293=ORIENTED_EDGE('',*,*,#373,.F.);
#294=CARTESIAN_POINT('',(8.01423446366276E-16,4.0,-13.0882381258704));
#295=DIRECTION('',(-6.12323399573677E-17,0.0,1.0));
#296=DIRECTION('',(0.0,-1.0,0.0));
#297=SURFACE_STYLE_FILL_AREA(#376);
#298=ORIENTED_EDGE('',*,*,#377,.F.);
#299=ORIENTED_EDGE('',*,*,#378,.T.);
#300=ORIENTED_EDGE('',*,*,#379,.F.);
#301=ORIENTED_EDGE('',*,*,#380,.F.);
#302=CARTESIAN_POINT('',(-9.73954308859766E-16,0.0,15.9058809370648));
#303=DIRECTION('',(6.12323399573677E-17,0.0,-1.0));
#304=DIRECTION('',(0.0,1.0,0.0));
#305=SURFACE_STYLE_FILL_AREA(#381);
#306=ORIENTED_EDGE('',*,*,#382,.F.);
#307=ORIENTED_EDGE('',*,*,#383,.T.);
#308=ORIENTED_EDGE('',*,*,#384,.F.);
#309=ORIENTED_EDGE('',*,*,#378,.F.);
#310=CARTESIAN_POINT('',(-2.84424219101973E-15,0.0,46.45));
#311=DIRECTION('',(6.12323399573677E-17,-0.0,-1.0));
#312=DIRECTION('',(0.0,1.0,0.0));
#313=SURFACE_STYLE_FILL_AREA(#385);
#314=ORIENTED_EDGE('',*,*,#383,.F.);
#315=ORIENTED_EDGE('',*,*,#386,.F.);
#316=CARTESIAN_POINT('',(-2.93915231795365E-15,2.45,48.0));
#317=DIRECTION('',(-6.12323399573677E-17,0.0,1.0));
#318=DIRECTION('',(0.0,-1.0,0.0));
#319=SURFACE_STYLE_FILL_AREA(#387);
#320=ORIENTED_EDGE('',*,*,#382,.T.);
#321=ORIENTED_EDGE('',*,*,#388,.F.);
#322=ORIENTED_EDGE('',*,*,#384,.T.);
#323=ORIENTED_EDGE('',*,*,#386,.T.);
#324=CARTESIAN_POINT('',(-2.84424219101973E-15,0.0,46.45));
#325=DIRECTION('',(6.12323399573677E-17,-0.0,-1.0));
#326=DIRECTION('',(0.0,1.0,0.0));
#327=SURFACE_STYLE_FILL_AREA(#389);
#328=ORIENTED_EDGE('',*,*,#377,.T.);
#329=ORIENTED_EDGE('',*,*,#390,.F.);
#330=ORIENTED_EDGE('',*,*,#379,.T.);
#331=ORIENTED_EDGE('',*,*,#388,.T.);
#332=CARTESIAN_POINT('',(-9.73954308859766E-16,0.0,15.9058809370648));
#333=DIRECTION('',(6.12323399573677E-17,0.0,-1.0));
#334=DIRECTION('',(0.0,1.0,0.0));
#335=SURFACE_STYLE_FILL_AREA(#391);
#336=ORIENTED_EDGE('',*,*,#380,.T.);
#337=ORIENTED_EDGE('',*,*,#390,.T.);
#338=CARTESIAN_POINT('',(8.01423446366276E-16,4.0,-13.0882381258704));
#339=DIRECTION('',(6.12323399573677E-17,0.0,-1.0));
#340=DIRECTION('',(0.0,1.0,0.0));
#341=CARTESIAN_POINT('',(4.10256677714363E-15,0.0,-67.0));
#342=VECTOR('',#392,1.0);
#343=CARTESIAN_POINT('',(0.0,8.0,0.0));
#344=VECTOR('',#393,1.0);
#345=CARTESIAN_POINT('',(8.01423446366275E-16,8.0,-13.0882381258704));
#346=VECTOR('',#394,1.0);
#347=CARTESIAN_POINT('',(8.01423446366275E-16,8.0,-13.0882381258704));
#348=VECTOR('',#395,1.0);
#349=CARTESIAN_POINT('',(8.01423446366275E-16,8.0,-13.0882381258704));
#350=VECTOR('',#396,1.0);
#351=CARTESIAN_POINT('',(8.01423446366275E-16,0.0,-13.0882381258704));
#352=VECTOR('',#397,1.0);
#353=CARTESIAN_POINT('',(8.01423446366275E-16,0.0,-13.0882381258704));
#354=VECTOR('',#398,1.0);
#355=CARTESIAN_POINT('',(-2.93915231795365E-15,0.0,48.0));
#356=VECTOR('',#399,1.0);
#357=CARTESIAN_POINT('',(-2.93915231795365E-15,4.9,48.0));
#358=VECTOR('',#400,1.0);
#359=CARTESIAN_POINT('',(-2.74933206408581E-15,8.0,44.9));
#360=VECTOR('',#401,1.0);
#361=CARTESIAN_POINT('',(0.0,8.0,0.0));
#362=VECTOR('',#402,1.0);
#363=FILL_AREA_STYLE('',(#403));
#364=EDGE_CURVE('',#404,#405,#406,.T.);
#365=EDGE_CURVE('',#407,#404,#408,.T.);
#366=EDGE_CURVE('',#407,#405,#409,.T.);
#367=FILL_AREA_STYLE('',(#410));
#368=EDGE_CURVE('',#411,#407,#412,.T.);
#369=EDGE_CURVE('',#411,#413,#414,.T.);
#370=EDGE_CURVE('',#405,#413,#415,.T.);
#371=FILL_AREA_STYLE('',(#416));
#372=EDGE_CURVE('',#405,#407,#417,.T.);
#373=EDGE_CURVE('',#413,#411,#418,.T.);
#374=FILL_AREA_STYLE('',(#419));
#375=FILL_AREA_STYLE('',(#420));
#376=FILL_AREA_STYLE('',(#421));
#377=EDGE_CURVE('',#422,#423,#424,.T.);
#378=EDGE_CURVE('',#422,#425,#426,.T.);
#379=EDGE_CURVE('',#427,#425,#428,.T.);
#380=EDGE_CURVE('',#423,#427,#429,.T.);
#381=FILL_AREA_STYLE('',(#430));
#382=EDGE_CURVE('',#431,#422,#432,.T.);
#383=EDGE_CURVE('',#431,#433,#434,.T.);
#384=EDGE_CURVE('',#425,#433,#435,.T.);
#385=FILL_AREA_STYLE('',(#436));
#386=EDGE_CURVE('',#433,#431,#437,.T.);
#387=FILL_AREA_STYLE('',(#438));
#388=EDGE_CURVE('',#425,#422,#439,.T.);
#389=FILL_AREA_STYLE('',(#440));
#390=EDGE_CURVE('',#427,#423,#441,.T.);
#391=FILL_AREA_STYLE('',(#442));
#392=DIRECTION('',(-2.09426936883849E-17,0.939692620785908,0.342020143325669));
#393=DIRECTION('',(6.12323399573677E-17,0.0,-1.0));
#394=DIRECTION('',(0.0,-1.0,0.0));
#395=DIRECTION('',(0.0,-1.0,0.0));
#396=DIRECTION('',(6.12323399573677E-17,0.0,-1.0));
#397=DIRECTION('',(6.12323399573677E-17,0.0,-1.0));
#398=DIRECTION('',(-6.12323399573676E-17,0.0,1.0));
#399=DIRECTION('',(0.0,1.0,0.0));
#400=DIRECTION('',(4.32978028117747E-17,0.707106781186547,-0.707106781186548));
#401=DIRECTION('',(6.12323399573677E-17,0.0,-1.0));
#402=DIRECTION('',(0.0,-1.0,0.0));
#403=FILL_AREA_STYLE_COLOUR('',#443);
#404=VERTEX_POINT('',#444);
#405=VERTEX_POINT('',#445);
#406=LINE('',#446,#447);
#407=VERTEX_POINT('',#448);
#408=LINE('',#449,#450);
#409=CIRCLE('',#451,8.0);
#410=FILL_AREA_STYLE_COLOUR('',#452);
#411=VERTEX_POINT('',#453);
#412=LINE('',#454,#455);
#413=VERTEX_POINT('',#456);
#414=CIRCLE('',#457,8.0);
#415=LINE('',#458,#459);
#416=FILL_AREA_STYLE_COLOUR('',#460);
#417=CIRCLE('',#461,8.0);
#418=CIRCLE('',#462,8.0);
#419=FILL_AREA_STYLE_COLOUR('',#463);
#420=FILL_AREA_STYLE_COLOUR('',#464);
#421=FILL_AREA_STYLE_COLOUR('',#465);
#422=VERTEX_POINT('',#466);
#423=VERTEX_POINT('',#467);
#424=LINE('',#468,#469);
#425=VERTEX_POINT('',#470);
#426=CIRCLE('',#471,8.0);
#427=VERTEX_POINT('',#472);
#428=LINE('',#473,#474);
#429=CIRCLE('',#475,8.0);
#430=FILL_AREA_STYLE_COLOUR('',#476);
#431=VERTEX_POINT('',#477);
#432=LINE('',#478,#479);
#433=VERTEX_POINT('',#480);
#434=CIRCLE('',#481,4.9);
#435=LINE('',#482,#483);
#436=FILL_AREA_STYLE_COLOUR('',#484);
#437=CIRCLE('',#485,4.9);
#438=FILL_AREA_STYLE_COLOUR('',#486);
#439=CIRCLE('',#487,8.0);
#440=FILL_AREA_STYLE_COLOUR('',#488);
#441=CIRCLE('',#489,8.0);
#442=FILL_AREA_STYLE_COLOUR('',#490);
#443=COLOUR_RGB('',0.800000011920929,0.800000011920929,0.800000011920929);
#444=CARTESIAN_POINT('',(4.10256677714363E-15,0.0,-67.0));
#445=CARTESIAN_POINT('',(4.90399022350991E-15,-8.0,-64.0882381258704));
#446=CARTESIAN_POINT('',(4.50327850032677E-15,-4.0,-65.5441190629352));
#447=VECTOR('',#491,1.0);
#448=CARTESIAN_POINT('',(3.92427278419203E-15,8.0,-64.0882381258704));
#449=CARTESIAN_POINT('',(3.52356106100889E-15,4.0,-65.5441190629352));
#450=VECTOR('',#492,1.0);
#451=AXIS2_PLACEMENT_3D('',#493,#494,#495);
#452=COLOUR_RGB('',0.800000011920929,0.800000011920929,0.800000011920929);
#453=CARTESIAN_POINT('',(8.01423446366276E-16,8.0,-13.0882381258704));
#454=CARTESIAN_POINT('',(1.38313067596127E-15,8.0,-38.5882381258704));
#455=VECTOR('',#496,1.0);
#456=CARTESIAN_POINT('',(1.78114088568416E-15,-8.0,-13.0882381258704));
#457=AXIS2_PLACEMENT_3D('',#497,#498,#499);
#458=CARTESIAN_POINT('',(3.34256555459703E-15,-8.0,-38.5882381258704));
#459=VECTOR('',#500,1.0);
#460=COLOUR_RGB('',0.800000011920929,0.800000011920929,0.800000011920929);
#461=AXIS2_PLACEMENT_3D('',#501,#502,#503);
#462=AXIS2_PLACEMENT_3D('',#504,#505,#506);
#463=COLOUR_RGB('',0.800000011920929,0.800000011920929,0.800000011920929);
#464=COLOUR_RGB('',0.800000011920929,0.800000011920929,0.800000011920929);
#465=COLOUR_RGB('',0.498039215803146,0.498039215803146,0.498039215803146);
#466=CARTESIAN_POINT('',(-2.74933206408581E-15,8.0,44.9));
#467=CARTESIAN_POINT('',(8.01423446366276E-16,8.0,-13.0882381258704));
#468=CARTESIAN_POINT('',(-1.95367174817765E-15,8.0,15.9058809370648));
#469=VECTOR('',#507,1.0);
#470=CARTESIAN_POINT('',(-1.76961462476792E-15,-8.0,44.9));
#471=AXIS2_PLACEMENT_3D('',#508,#509,#510);
#472=CARTESIAN_POINT('',(1.78114088568416E-15,-8.0,-13.0882381258704));
#473=CARTESIAN_POINT('',(5.76313045811652E-18,-8.0,15.9058809370648));
#474=VECTOR('',#511,1.0);
#475=AXIS2_PLACEMENT_3D('',#512,#513,#514);
#476=COLOUR_RGB('',0.498039215803146,0.498039215803146,0.498039215803146);
#477=CARTESIAN_POINT('',(-2.93915231795365E-15,4.9,48.0));
#478=CARTESIAN_POINT('',(-3.63413937646977E-15,6.45,46.45));
#479=VECTOR('',#515,1.0);
#480=CARTESIAN_POINT('',(-2.33907538637144E-15,-4.9,48.0));
#481=AXIS2_PLACEMENT_3D('',#516,#517,#518);
#482=CARTESIAN_POINT('',(-2.05434500556969E-15,-6.45,46.45));
#483=VECTOR('',#519,1.0);
#484=COLOUR_RGB('',0.498039215803146,0.498039215803146,0.498039215803146);
#485=AXIS2_PLACEMENT_3D('',#520,#521,#522);
#486=COLOUR_RGB('',0.498039215803146,0.498039215803146,0.498039215803146);
#487=AXIS2_PLACEMENT_3D('',#523,#524,#525);
#488=COLOUR_RGB('',0.498039215803146,0.498039215803146,0.498039215803146);
#489=AXIS2_PLACEMENT_3D('',#526,#527,#528);
#490=COLOUR_RGB('',0.498039215803146,0.498039215803146,0.498039215803146);
#491=DIRECTION('',(9.41364623343998E-17,-0.939692620785908,0.342020143325669));
#492=DIRECTION('',(1.3602184971117E-16,-0.939692620785908,-0.342020143325669));
#493=CARTESIAN_POINT('',(3.92427278419203E-15,0.0,-64.0882381258704));
#494=DIRECTION('',(6.12323399573677E-17,0.0,-1.0));
#495=DIRECTION('',(0.0,1.0,0.0));
#496=DIRECTION('',(6.12323399573677E-17,0.0,-1.0));
#497=CARTESIAN_POINT('',(8.01423446366276E-16,0.0,-13.0882381258704));
#498=DIRECTION('',(6.12323399573677E-17,0.0,-1.0));
#499=DIRECTION('',(0.0,1.0,0.0));
#500=DIRECTION('',(-6.12323399573677E-17,-0.0,1.0));
#501=CARTESIAN_POINT('',(3.92427278419203E-15,0.0,-64.0882381258704));
#502=DIRECTION('',(6.12323399573677E-17,0.0,-1.0));
#503=DIRECTION('',(0.0,1.0,0.0));
#504=CARTESIAN_POINT('',(8.01423446366276E-16,0.0,-13.0882381258704));
#505=DIRECTION('',(6.12323399573677E-17,0.0,-1.0));
#506=DIRECTION('',(0.0,1.0,0.0));
#507=DIRECTION('',(6.12323399573677E-17,0.0,-1.0));
#508=CARTESIAN_POINT('',(-2.74933206408581E-15,0.0,44.9));
#509=DIRECTION('',(6.12323399573677E-17,0.0,-1.0));
#510=DIRECTION('',(0.0,1.0,0.0));
#511=DIRECTION('',(-6.12323399573677E-17,-0.0,1.0));
#512=CARTESIAN_POINT('',(8.01423446366276E-16,0.0,-13.0882381258704));
#513=DIRECTION('',(6.12323399573677E-17,0.0,-1.0));
#514=DIRECTION('',(0.0,1.0,0.0));
#515=DIRECTION('',(-4.32978028117747E-17,0.707106781186547,-0.707106781186548));
#516=CARTESIAN_POINT('',(-2.93915231795365E-15,0.0,48.0));
#517=DIRECTION('',(6.12323399573677E-17,0.0,-1.0));
#518=DIRECTION('',(0.0,1.0,0.0));
#519=DIRECTION('',(-1.29893408435324E-16,0.707106781186547,0.707106781186548));
#520=CARTESIAN_POINT('',(-2.93915231795365E-15,0.0,48.0));
#521=DIRECTION('',(6.12323399573677E-17,0.0,-1.0));
#522=DIRECTION('',(0.0,1.0,0.0));
#523=CARTESIAN_POINT('',(-2.74933206408581E-15,0.0,44.9));
#524=DIRECTION('',(6.12323399573677E-17,0.0,-1.0));
#525=DIRECTION('',(0.0,1.0,0.0));
#526=CARTESIAN_POINT('',(8.01423446366276E-16,0.0,-13.0882381258704));
#527=DIRECTION('',(6.12323399573677E-17,0.0,-1.0));
#528=DIRECTION('',(0.0,1.0,0.0));
#529=DIRECTION('',(0.0,0.0,1.0));
#530=DIRECTION('',(1.0,0.0,0.0));
#531=CARTESIAN_POINT('',(0.0,0.0,48.000000));
#532=AXIS2_PLACEMENT_3D('PCS', #531,#529,#530);
#533=CARTESIAN_POINT('',(0.0,0.0,0.000000));
#534=AXIS2_PLACEMENT_3D('MCS', #533,#529,#530);
#535=CARTESIAN_POINT('',(0.0,0.0,-67.000000));
#536=AXIS2_PLACEMENT_3D('CIP', #535,#529,#530);
ENDSEC;
END-ISO-10303-21;
