ISO-10303-21;
HEADER;
FILE_DESCRIPTION(('STEP AP214'),'1');
FILE_NAME('608040041-000-00-E43.stp','2024-02-15T14:13:17',(' '),(' '),'Spatial InterOp 3D',' ',' ');
FILE_SCHEMA(('AUTOMOTIVE_DESIGN { 1 0 10303 214 1 1 1 1 }'));
ENDSEC;
DATA;
#1=MECHANICAL_DESIGN_GEOMETRIC_PRESENTATION_REPRESENTATION(' ',(#12,#13,#14,#15,#16,#17,#18,#19,#20,#21,#22,#23,#24,#25,#26,#27,#28,#29),#8);
#2=PRODUCT_DEFINITION_CONTEXT('',#30,'design');
#3=APPLICATION_PROTOCOL_DEFINITION('INTERNATIONAL STANDARD','automotive_design',1994,#30);
#4=PRODUCT_CATEGORY_RELATIONSHIP('NONE','NONE',#31,#32);
#5=SHAPE_DEFINITION_REPRESENTATION(#33,#34);
#6=SHAPE_DEFINITION_REPRESENTATION(#33,#35);
#7=SHAPE_DEFINITION_REPRESENTATION(#33,#36);
#8= (GEOMETRIC_REPRESENTATION_CONTEXT(3)GLOBAL_UNCERTAINTY_ASSIGNED_CONTEXT((#39))GLOBAL_UNIT_ASSIGNED_CONTEXT((#41,#42,#43))REPRESENTATION_CONTEXT('NONE','WORKSPACE'));
#12=STYLED_ITEM('',(#45),#46);
#13=STYLED_ITEM('',(#47),#48);
#14=STYLED_ITEM('',(#49),#50);
#15=STYLED_ITEM('',(#51),#52);
#16=STYLED_ITEM('',(#53),#54);
#17=STYLED_ITEM('',(#55),#56);
#18=STYLED_ITEM('',(#57),#58);
#19=STYLED_ITEM('',(#59),#60);
#20=STYLED_ITEM('',(#61),#62);
#21=STYLED_ITEM('',(#63),#64);
#22=STYLED_ITEM('',(#65),#66);
#23=STYLED_ITEM('',(#67),#68);
#24=STYLED_ITEM('',(#69),#70);
#25=STYLED_ITEM('',(#71),#72);
#26=STYLED_ITEM('',(#73),#74);
#27=STYLED_ITEM('',(#75),#76);
#28=STYLED_ITEM('',(#77),#78);
#29=STYLED_ITEM('',(#79),#80);
#30=APPLICATION_CONTEXT(' ');
#31=PRODUCT_CATEGORY('part','NONE');
#32=PRODUCT_RELATED_PRODUCT_CATEGORY('detail',' ',(#81));
#33=PRODUCT_DEFINITION_SHAPE('NONE','NONE',#82);
#34=ADVANCED_BREP_SHAPE_REPRESENTATION('1',(#83,#84),#8);
#35=ADVANCED_BREP_SHAPE_REPRESENTATION('2',(#85,#86),#8);
#36=GEOMETRICALLY_BOUNDED_SURFACE_SHAPE_REPRESENTATION('3',(#87,#88),#8);
#39=UNCERTAINTY_MEASURE_WITH_UNIT(LENGTH_MEASURE(1.0E-06),#41,'','');
#41= (CONVERSION_BASED_UNIT('MILLIMETRE',#91)LENGTH_UNIT()NAMED_UNIT(#94));
#42= (NAMED_UNIT(#96)PLANE_ANGLE_UNIT()SI_UNIT($,.RADIAN.));
#43= (NAMED_UNIT(#96)SOLID_ANGLE_UNIT()SI_UNIT($,.STERADIAN.));
#45=PRESENTATION_STYLE_ASSIGNMENT((#102));
#46=COMPOSITE_CURVE('',(#103),.U.);
#47=PRESENTATION_STYLE_ASSIGNMENT((#104));
#48=COMPOSITE_CURVE('',(#105,#106,#107,#108,#109,#110,#111),.U.);
#49=PRESENTATION_STYLE_ASSIGNMENT((#112));
#50=ADVANCED_FACE('',(#113),#114,.T.);
#51=PRESENTATION_STYLE_ASSIGNMENT((#115));
#52=ADVANCED_FACE('',(#116),#117,.T.);
#53=PRESENTATION_STYLE_ASSIGNMENT((#118));
#54=ADVANCED_FACE('',(#119),#120,.T.);
#55=PRESENTATION_STYLE_ASSIGNMENT((#121));
#56=ADVANCED_FACE('',(#122),#123,.T.);
#57=PRESENTATION_STYLE_ASSIGNMENT((#124));
#58=ADVANCED_FACE('',(#125),#126,.T.);
#59=PRESENTATION_STYLE_ASSIGNMENT((#127));
#60=ADVANCED_FACE('',(#128),#129,.T.);
#61=PRESENTATION_STYLE_ASSIGNMENT((#130));
#62=ADVANCED_FACE('',(#131,#132),#133,.T.);
#63=PRESENTATION_STYLE_ASSIGNMENT((#134));
#64=ADVANCED_FACE('',(#135),#136,.T.);
#65=PRESENTATION_STYLE_ASSIGNMENT((#137));
#66=ADVANCED_FACE('',(#138),#139,.T.);
#67=PRESENTATION_STYLE_ASSIGNMENT((#140));
#68=COMPOSITE_CURVE('',(#141,#142,#143,#144,#145,#146),.U.);
#69=PRESENTATION_STYLE_ASSIGNMENT((#147));
#70=ADVANCED_FACE('',(#148),#149,.T.);
#71=PRESENTATION_STYLE_ASSIGNMENT((#150));
#72=ADVANCED_FACE('',(#151),#152,.T.);
#73=PRESENTATION_STYLE_ASSIGNMENT((#153));
#74=ADVANCED_FACE('',(#154),#155,.T.);
#75=PRESENTATION_STYLE_ASSIGNMENT((#156));
#76=ADVANCED_FACE('',(#157),#158,.T.);
#77=PRESENTATION_STYLE_ASSIGNMENT((#159));
#78=ADVANCED_FACE('',(#160),#161,.T.);
#79=PRESENTATION_STYLE_ASSIGNMENT((#162));
#80=ADVANCED_FACE('',(#163),#164,.T.);
#81=PRODUCT('1','','PART--DESC',(#165));
#82=PRODUCT_DEFINITION('','NONE',#166,#2);
#83=MANIFOLD_SOLID_BREP('1',#167);
#84=AXIS2_PLACEMENT_3D('',#168,#169,#170);
#85=MANIFOLD_SOLID_BREP('2',#171);
#86=AXIS2_PLACEMENT_3D('',#172,#173,#174);
#87=GEOMETRIC_SET('3',(#46,#48,#68));
#88=AXIS2_PLACEMENT_3D('',#175,#176,#177);
#91=LENGTH_MEASURE_WITH_UNIT(LENGTH_MEASURE(1.0),#178);
#94=DIMENSIONAL_EXPONENTS(1.0,0.0,0.0,0.0,0.0,0.0,0.0);
#96=DIMENSIONAL_EXPONENTS(0.0,0.0,0.0,0.0,0.0,0.0,0.0);
#102=CURVE_STYLE('',#179,POSITIVE_LENGTH_MEASURE(1.0E-06),#180);
#103=COMPOSITE_CURVE_SEGMENT(.CONTINUOUS.,.T.,#181);
#104=CURVE_STYLE('',#182,POSITIVE_LENGTH_MEASURE(1.0E-06),#183);
#105=COMPOSITE_CURVE_SEGMENT(.CONTINUOUS.,.T.,#184);
#106=COMPOSITE_CURVE_SEGMENT(.CONTINUOUS.,.T.,#185);
#107=COMPOSITE_CURVE_SEGMENT(.CONTINUOUS.,.T.,#186);
#108=COMPOSITE_CURVE_SEGMENT(.CONTINUOUS.,.T.,#187);
#109=COMPOSITE_CURVE_SEGMENT(.CONTINUOUS.,.T.,#188);
#110=COMPOSITE_CURVE_SEGMENT(.CONTINUOUS.,.T.,#189);
#111=COMPOSITE_CURVE_SEGMENT(.CONTINUOUS.,.T.,#190);
#112=SURFACE_STYLE_USAGE(.BOTH.,#191);
#113=FACE_OUTER_BOUND('',#192,.T.);
#114=CYLINDRICAL_SURFACE('',#193,7.75);
#115=SURFACE_STYLE_USAGE(.BOTH.,#194);
#116=FACE_OUTER_BOUND('',#195,.T.);
#117=CYLINDRICAL_SURFACE('',#196,8.0);
#118=SURFACE_STYLE_USAGE(.BOTH.,#197);
#119=FACE_OUTER_BOUND('',#198,.T.);
#120=CONICAL_SURFACE('',#199,7.39999999999998,0.785398163397448);
#121=SURFACE_STYLE_USAGE(.BOTH.,#200);
#122=FACE_OUTER_BOUND('',#201,.T.);
#123=PLANE('',#202);
#124=SURFACE_STYLE_USAGE(.BOTH.,#203);
#125=FACE_OUTER_BOUND('',#204,.T.);
#126=CONICAL_SURFACE('',#205,7.39999999999998,0.785398163397448);
#127=SURFACE_STYLE_USAGE(.BOTH.,#206);
#128=FACE_OUTER_BOUND('',#207,.T.);
#129=CYLINDRICAL_SURFACE('',#208,8.0);
#130=SURFACE_STYLE_USAGE(.BOTH.,#209);
#131=FACE_BOUND('',#210,.T.);
#132=FACE_OUTER_BOUND('',#211,.T.);
#133=PLANE('',#212);
#134=SURFACE_STYLE_USAGE(.BOTH.,#213);
#135=FACE_OUTER_BOUND('',#214,.T.);
#136=CYLINDRICAL_SURFACE('',#215,7.75);
#137=SURFACE_STYLE_USAGE(.BOTH.,#216);
#138=FACE_OUTER_BOUND('',#217,.T.);
#139=PLANE('',#218);
#140=CURVE_STYLE('',#219,POSITIVE_LENGTH_MEASURE(1.0E-06),#220);
#141=COMPOSITE_CURVE_SEGMENT(.CONTINUOUS.,.T.,#221);
#142=COMPOSITE_CURVE_SEGMENT(.CONTINUOUS.,.T.,#222);
#143=COMPOSITE_CURVE_SEGMENT(.CONTINUOUS.,.T.,#223);
#144=COMPOSITE_CURVE_SEGMENT(.CONTINUOUS.,.T.,#224);
#145=COMPOSITE_CURVE_SEGMENT(.CONTINUOUS.,.T.,#225);
#146=COMPOSITE_CURVE_SEGMENT(.CONTINUOUS.,.T.,#226);
#147=SURFACE_STYLE_USAGE(.BOTH.,#227);
#148=FACE_OUTER_BOUND('',#228,.T.);
#149=TOROIDAL_SURFACE('',#229,7.5,0.5);
#150=SURFACE_STYLE_USAGE(.BOTH.,#230);
#151=FACE_OUTER_BOUND('',#231,.T.);
#152=CYLINDRICAL_SURFACE('',#232,8.0);
#153=SURFACE_STYLE_USAGE(.BOTH.,#233);
#154=FACE_OUTER_BOUND('',#234,.T.);
#155=PLANE('',#235);
#156=SURFACE_STYLE_USAGE(.BOTH.,#236);
#157=FACE_OUTER_BOUND('',#237,.T.);
#158=PLANE('',#238);
#159=SURFACE_STYLE_USAGE(.BOTH.,#239);
#160=FACE_OUTER_BOUND('',#240,.T.);
#161=CYLINDRICAL_SURFACE('',#241,8.0);
#162=SURFACE_STYLE_USAGE(.BOTH.,#242);
#163=FACE_OUTER_BOUND('',#243,.T.);
#164=TOROIDAL_SURFACE('',#244,7.5,0.5);
#165=PRODUCT_CONTEXT('',#30,'mechanical');
#166=PRODUCT_DEFINITION_FORMATION_WITH_SPECIFIED_SOURCE(' ','NONE',#81,.NOT_KNOWN.);
#167=CLOSED_SHELL('',(#50,#52,#54,#56,#58,#60,#62,#64,#66));
#168=CARTESIAN_POINT('',(0.0,0.0,0.0));
#169=DIRECTION('',(0.0,0.0,1.0));
#170=DIRECTION('',(1.0,0.0,0.0));
#171=CLOSED_SHELL('',(#70,#72,#74,#76,#78,#80));
#172=CARTESIAN_POINT('',(0.0,0.0,0.0));
#173=DIRECTION('',(0.0,0.0,1.0));
#174=DIRECTION('',(1.0,0.0,0.0));
#175=CARTESIAN_POINT('',(0.0,0.0,0.0));
#176=DIRECTION('',(0.0,0.0,1.0));
#177=DIRECTION('',(1.0,0.0,0.0));
#178= (NAMED_UNIT(#94)LENGTH_UNIT()SI_UNIT(.MILLI.,.METRE.));
#179=DRAUGHTING_PRE_DEFINED_CURVE_FONT('continuous');
#180=COLOUR_RGB('',0.0,1.0,0.0);
#181=TRIMMED_CURVE('',#246,(PARAMETER_VALUE(0.0)),(PARAMETER_VALUE(7.75)),.T.,.UNSPECIFIED.);
#182=DRAUGHTING_PRE_DEFINED_CURVE_FONT('continuous');
#183=COLOUR_RGB('',0.498039215803146,0.498039215803146,0.498039215803146);
#184=TRIMMED_CURVE('',#247,(PARAMETER_VALUE(0.0)),(PARAMETER_VALUE(22.0)),.T.,.UNSPECIFIED.);
#185=TRIMMED_CURVE('',#248,(PARAMETER_VALUE(0.0)),(PARAMETER_VALUE(0.25)),.T.,.UNSPECIFIED.);
#186=TRIMMED_CURVE('',#249,(PARAMETER_VALUE(0.0)),(PARAMETER_VALUE(48.8)),.T.,.UNSPECIFIED.);
#187=TRIMMED_CURVE('',#250,(PARAMETER_VALUE(0.0)),(PARAMETER_VALUE(1.69705627484778)),.T.,.UNSPECIFIED.);
#188=TRIMMED_CURVE('',#251,(PARAMETER_VALUE(0.0)),(PARAMETER_VALUE(6.79999999999995)),.T.,.UNSPECIFIED.);
#189=TRIMMED_CURVE('',#252,(PARAMETER_VALUE(0.0)),(PARAMETER_VALUE(72.0)),.T.,.UNSPECIFIED.);
#190=TRIMMED_CURVE('',#253,(PARAMETER_VALUE(0.0)),(PARAMETER_VALUE(7.75)),.T.,.UNSPECIFIED.);
#191=SURFACE_SIDE_STYLE('',(#254));
#192=EDGE_LOOP('',(#255,#256,#257,#258));
#193=AXIS2_PLACEMENT_3D('',#259,#260,#261);
#194=SURFACE_SIDE_STYLE('',(#262));
#195=EDGE_LOOP('',(#263,#264,#265,#266));
#196=AXIS2_PLACEMENT_3D('',#267,#268,#269);
#197=SURFACE_SIDE_STYLE('',(#270));
#198=EDGE_LOOP('',(#271,#272,#273,#274));
#199=AXIS2_PLACEMENT_3D('',#275,#276,#277);
#200=SURFACE_SIDE_STYLE('',(#278));
#201=EDGE_LOOP('',(#279,#280));
#202=AXIS2_PLACEMENT_3D('',#281,#282,#283);
#203=SURFACE_SIDE_STYLE('',(#284));
#204=EDGE_LOOP('',(#285,#286,#287,#288));
#205=AXIS2_PLACEMENT_3D('',#289,#290,#291);
#206=SURFACE_SIDE_STYLE('',(#292));
#207=EDGE_LOOP('',(#293,#294,#295,#296));
#208=AXIS2_PLACEMENT_3D('',#297,#298,#299);
#209=SURFACE_SIDE_STYLE('',(#300));
#210=EDGE_LOOP('',(#301,#302));
#211=EDGE_LOOP('',(#303,#304));
#212=AXIS2_PLACEMENT_3D('',#305,#306,#307);
#213=SURFACE_SIDE_STYLE('',(#308));
#214=EDGE_LOOP('',(#309,#310,#311,#312));
#215=AXIS2_PLACEMENT_3D('',#313,#314,#315);
#216=SURFACE_SIDE_STYLE('',(#316));
#217=EDGE_LOOP('',(#317,#318));
#218=AXIS2_PLACEMENT_3D('',#319,#320,#321);
#219=DRAUGHTING_PRE_DEFINED_CURVE_FONT('continuous');
#220=COLOUR_RGB('',0.0,0.0,1.0);
#221=TRIMMED_CURVE('',#322,(PARAMETER_VALUE(0.0)),(PARAMETER_VALUE(35.5)),.T.,.UNSPECIFIED.);
#222=TRIMMED_CURVE('',#323,(PARAMETER_VALUE(0.0)),(PARAMETER_VALUE(0.25)),.T.,.UNSPECIFIED.);
#223=TRIMMED_CURVE('',#324,(PARAMETER_VALUE(0.0)),(PARAMETER_VALUE(7.75)),.T.,.UNSPECIFIED.);
#224=TRIMMED_CURVE('',#325,(PARAMETER_VALUE(0.0)),(PARAMETER_VALUE(36.0)),.T.,.UNSPECIFIED.);
#225=TRIMMED_CURVE('',#326,(PARAMETER_VALUE(0.0)),(PARAMETER_VALUE(7.5)),.T.,.UNSPECIFIED.);
#226=TRIMMED_CURVE('',#327,(PARAMETER_VALUE(-0.785398163397448)),(PARAMETER_VALUE(0.785398163397448)),.T.,.UNSPECIFIED.);
#227=SURFACE_SIDE_STYLE('',(#328));
#228=EDGE_LOOP('',(#329,#330,#331,#332,#333,#334));
#229=AXIS2_PLACEMENT_3D('',#335,#336,#337);
#230=SURFACE_SIDE_STYLE('',(#338));
#231=EDGE_LOOP('',(#339,#340,#341,#342,#343));
#232=AXIS2_PLACEMENT_3D('',#344,#345,#346);
#233=SURFACE_SIDE_STYLE('',(#347));
#234=EDGE_LOOP('',(#348,#349,#350));
#235=AXIS2_PLACEMENT_3D('',#351,#352,#353);
#236=SURFACE_SIDE_STYLE('',(#354));
#237=EDGE_LOOP('',(#355,#356));
#238=AXIS2_PLACEMENT_3D('',#357,#358,#359);
#239=SURFACE_SIDE_STYLE('',(#360));
#240=EDGE_LOOP('',(#361,#362,#363,#364,#365));
#241=AXIS2_PLACEMENT_3D('',#366,#367,#368);
#242=SURFACE_SIDE_STYLE('',(#369));
#243=EDGE_LOOP('',(#370,#371,#372,#373,#374));
#244=AXIS2_PLACEMENT_3D('',#375,#376,#377);
#246=LINE('',#378,#379);
#247=LINE('',#380,#381);
#248=LINE('',#382,#383);
#249=LINE('',#384,#385);
#250=LINE('',#386,#387);
#251=LINE('',#388,#389);
#252=LINE('',#390,#391);
#253=LINE('',#392,#393);
#254=SURFACE_STYLE_FILL_AREA(#394);
#255=ORIENTED_EDGE('',*,*,#395,.F.);
#256=ORIENTED_EDGE('',*,*,#396,.T.);
#257=ORIENTED_EDGE('',*,*,#397,.F.);
#258=ORIENTED_EDGE('',*,*,#398,.F.);
#259=CARTESIAN_POINT('',(6.73555739531044E-16,0.0,-11.0));
#260=DIRECTION('',(6.12323399573677E-17,0.0,-1.0));
#261=DIRECTION('',(0.0,1.0,0.0));
#262=SURFACE_STYLE_FILL_AREA(#399);
#263=ORIENTED_EDGE('',*,*,#400,.F.);
#264=ORIENTED_EDGE('',*,*,#401,.T.);
#265=ORIENTED_EDGE('',*,*,#402,.F.);
#266=ORIENTED_EDGE('',*,*,#403,.F.);
#267=CARTESIAN_POINT('',(-1.49406909495977E-15,0.0,24.4));
#268=DIRECTION('',(6.12323399573677E-17,0.0,-1.0));
#269=DIRECTION('',(0.0,1.0,0.0));
#270=SURFACE_STYLE_FILL_AREA(#404);
#271=ORIENTED_EDGE('',*,*,#405,.F.);
#272=ORIENTED_EDGE('',*,*,#406,.T.);
#273=ORIENTED_EDGE('',*,*,#407,.F.);
#274=ORIENTED_EDGE('',*,*,#401,.F.);
#275=CARTESIAN_POINT('',(-3.02487759389396E-15,0.0,49.4));
#276=DIRECTION('',(6.12323399573677E-17,-0.0,-1.0));
#277=DIRECTION('',(0.0,1.0,0.0));
#278=SURFACE_STYLE_FILL_AREA(#408);
#279=ORIENTED_EDGE('',*,*,#406,.F.);
#280=ORIENTED_EDGE('',*,*,#409,.F.);
#281=CARTESIAN_POINT('',(-3.06161699786838E-15,3.39999999999998,50.0));
#282=DIRECTION('',(-6.12323399573677E-17,0.0,1.0));
#283=DIRECTION('',(0.0,-1.0,0.0));
#284=SURFACE_STYLE_FILL_AREA(#410);
#285=ORIENTED_EDGE('',*,*,#405,.T.);
#286=ORIENTED_EDGE('',*,*,#411,.F.);
#287=ORIENTED_EDGE('',*,*,#407,.T.);
#288=ORIENTED_EDGE('',*,*,#409,.T.);
#289=CARTESIAN_POINT('',(-3.02487759389396E-15,0.0,49.4));
#290=DIRECTION('',(6.12323399573677E-17,-0.0,-1.0));
#291=DIRECTION('',(0.0,1.0,0.0));
#292=SURFACE_STYLE_FILL_AREA(#412);
#293=ORIENTED_EDGE('',*,*,#400,.T.);
#294=ORIENTED_EDGE('',*,*,#413,.F.);
#295=ORIENTED_EDGE('',*,*,#402,.T.);
#296=ORIENTED_EDGE('',*,*,#411,.T.);
#297=CARTESIAN_POINT('',(-1.49406909495977E-15,0.0,24.4));
#298=DIRECTION('',(6.12323399573677E-17,0.0,-1.0));
#299=DIRECTION('',(0.0,1.0,0.0));
#300=SURFACE_STYLE_FILL_AREA(#414);
#301=ORIENTED_EDGE('',*,*,#396,.F.);
#302=ORIENTED_EDGE('',*,*,#415,.F.);
#303=ORIENTED_EDGE('',*,*,#403,.T.);
#304=ORIENTED_EDGE('',*,*,#413,.T.);
#305=CARTESIAN_POINT('',(0.0,7.875,0.0));
#306=DIRECTION('',(6.12323399573677E-17,0.0,-1.0));
#307=DIRECTION('',(0.0,1.0,0.0));
#308=SURFACE_STYLE_FILL_AREA(#416);
#309=ORIENTED_EDGE('',*,*,#395,.T.);
#310=ORIENTED_EDGE('',*,*,#417,.F.);
#311=ORIENTED_EDGE('',*,*,#397,.T.);
#312=ORIENTED_EDGE('',*,*,#415,.T.);
#313=CARTESIAN_POINT('',(6.73555739531044E-16,0.0,-11.0));
#314=DIRECTION('',(6.12323399573677E-17,0.0,-1.0));
#315=DIRECTION('',(0.0,1.0,0.0));
#316=SURFACE_STYLE_FILL_AREA(#418);
#317=ORIENTED_EDGE('',*,*,#398,.T.);
#318=ORIENTED_EDGE('',*,*,#417,.T.);
#319=CARTESIAN_POINT('',(1.34711147906209E-15,3.875,-22.0));
#320=DIRECTION('',(6.12323399573677E-17,0.0,-1.0));
#321=DIRECTION('',(0.0,1.0,0.0));
#322=LINE('',#419,#420);
#323=LINE('',#421,#422);
#324=LINE('',#423,#424);
#325=LINE('',#425,#426);
#326=LINE('',#427,#428);
#327=CIRCLE('',#429,0.5);
#328=SURFACE_STYLE_FILL_AREA(#430);
#329=ORIENTED_EDGE('',*,*,#431,.F.);
#330=ORIENTED_EDGE('',*,*,#432,.T.);
#331=ORIENTED_EDGE('',*,*,#433,.T.);
#332=ORIENTED_EDGE('',*,*,#434,.F.);
#333=ORIENTED_EDGE('',*,*,#435,.F.);
#334=ORIENTED_EDGE('',*,*,#436,.F.);
#335=CARTESIAN_POINT('',(3.52085954754864E-15,0.0,-57.5));
#336=DIRECTION('',(6.12323399573677E-17,0.0,-1.0));
#337=DIRECTION('',(-1.0,0.0,-6.12323399573677E-17));
#338=SURFACE_STYLE_FILL_AREA(#437);
#339=ORIENTED_EDGE('',*,*,#438,.F.);
#340=ORIENTED_EDGE('',*,*,#439,.T.);
#341=ORIENTED_EDGE('',*,*,#440,.F.);
#342=ORIENTED_EDGE('',*,*,#441,.F.);
#343=ORIENTED_EDGE('',*,*,#433,.F.);
#344=CARTESIAN_POINT('',(2.43398551330536E-15,0.0,-39.75));
#345=DIRECTION('',(6.12323399573677E-17,0.0,-1.0));
#346=DIRECTION('',(0.0,1.0,0.0));
#347=SURFACE_STYLE_FILL_AREA(#442);
#348=ORIENTED_EDGE('',*,*,#435,.T.);
#349=ORIENTED_EDGE('',*,*,#443,.T.);
#350=ORIENTED_EDGE('',*,*,#436,.T.);
#351=CARTESIAN_POINT('',(3.55147571752732E-15,3.75,-58.0));
#352=DIRECTION('',(6.12323399573677E-17,0.0,-1.0));
#353=DIRECTION('',(0.0,1.0,0.0));
#354=SURFACE_STYLE_FILL_AREA(#444);
#355=ORIENTED_EDGE('',*,*,#439,.F.);
#356=ORIENTED_EDGE('',*,*,#445,.F.);
#357=CARTESIAN_POINT('',(1.34711147906209E-15,4.0,-22.0));
#358=DIRECTION('',(-6.12323399573677E-17,0.0,1.0));
#359=DIRECTION('',(0.0,-1.0,0.0));
#360=SURFACE_STYLE_FILL_AREA(#446);
#361=ORIENTED_EDGE('',*,*,#438,.T.);
#362=ORIENTED_EDGE('',*,*,#432,.F.);
#363=ORIENTED_EDGE('',*,*,#447,.F.);
#364=ORIENTED_EDGE('',*,*,#440,.T.);
#365=ORIENTED_EDGE('',*,*,#445,.T.);
#366=CARTESIAN_POINT('',(2.43398551330536E-15,0.0,-39.75));
#367=DIRECTION('',(6.12323399573677E-17,0.0,-1.0));
#368=DIRECTION('',(0.0,1.0,0.0));
#369=SURFACE_STYLE_FILL_AREA(#448);
#370=ORIENTED_EDGE('',*,*,#431,.T.);
#371=ORIENTED_EDGE('',*,*,#443,.F.);
#372=ORIENTED_EDGE('',*,*,#434,.T.);
#373=ORIENTED_EDGE('',*,*,#441,.T.);
#374=ORIENTED_EDGE('',*,*,#447,.T.);
#375=CARTESIAN_POINT('',(3.52085954754864E-15,0.0,-57.5));
#376=DIRECTION('',(6.12323399573677E-17,0.0,-1.0));
#377=DIRECTION('',(-1.0,0.0,-6.12323399573677E-17));
#378=CARTESIAN_POINT('',(0.0,7.75,0.0));
#379=VECTOR('',#449,1.0);
#380=CARTESIAN_POINT('',(1.34711147906209E-15,7.75,-22.0));
#381=VECTOR('',#450,1.0);
#382=CARTESIAN_POINT('',(0.0,7.75,0.0));
#383=VECTOR('',#451,1.0);
#384=CARTESIAN_POINT('',(0.0,8.0,0.0));
#385=VECTOR('',#452,1.0);
#386=CARTESIAN_POINT('',(-2.98813818991954E-15,8.0,48.8));
#387=VECTOR('',#453,1.0);
#388=CARTESIAN_POINT('',(-3.06161699786838E-15,6.79999999999995,50.0));
#389=VECTOR('',#454,1.0);
#390=CARTESIAN_POINT('',(-3.06161699786838E-15,0.0,50.0));
#391=VECTOR('',#455,1.0);
#392=CARTESIAN_POINT('',(1.34711147906209E-15,0.0,-22.0));
#393=VECTOR('',#456,1.0);
#394=FILL_AREA_STYLE('',(#457));
#395=EDGE_CURVE('',#458,#459,#460,.T.);
#396=EDGE_CURVE('',#458,#461,#462,.T.);
#397=EDGE_CURVE('',#463,#461,#464,.T.);
#398=EDGE_CURVE('',#459,#463,#465,.T.);
#399=FILL_AREA_STYLE('',(#466));
#400=EDGE_CURVE('',#467,#468,#469,.T.);
#401=EDGE_CURVE('',#467,#470,#471,.T.);
#402=EDGE_CURVE('',#472,#470,#473,.T.);
#403=EDGE_CURVE('',#468,#472,#474,.T.);
#404=FILL_AREA_STYLE('',(#475));
#405=EDGE_CURVE('',#476,#467,#477,.T.);
#406=EDGE_CURVE('',#476,#478,#479,.T.);
#407=EDGE_CURVE('',#470,#478,#480,.T.);
#408=FILL_AREA_STYLE('',(#481));
#409=EDGE_CURVE('',#478,#476,#482,.T.);
#410=FILL_AREA_STYLE('',(#483));
#411=EDGE_CURVE('',#470,#467,#484,.T.);
#412=FILL_AREA_STYLE('',(#485));
#413=EDGE_CURVE('',#472,#468,#486,.T.);
#414=FILL_AREA_STYLE('',(#487));
#415=EDGE_CURVE('',#461,#458,#488,.T.);
#416=FILL_AREA_STYLE('',(#489));
#417=EDGE_CURVE('',#463,#459,#490,.T.);
#418=FILL_AREA_STYLE('',(#491));
#419=CARTESIAN_POINT('',(3.52085954754864E-15,8.0,-57.5));
#420=VECTOR('',#492,1.0);
#421=CARTESIAN_POINT('',(1.34711147906209E-15,8.0,-22.0));
#422=VECTOR('',#493,1.0);
#423=CARTESIAN_POINT('',(1.34711147906209E-15,7.75,-22.0));
#424=VECTOR('',#494,1.0);
#425=CARTESIAN_POINT('',(1.34711147906209E-15,0.0,-22.0));
#426=VECTOR('',#495,1.0);
#427=CARTESIAN_POINT('',(3.55147571752732E-15,0.0,-58.0));
#428=VECTOR('',#496,1.0);
#429=AXIS2_PLACEMENT_3D('',#497,#498,#499);
#430=FILL_AREA_STYLE('',(#500));
#431=EDGE_CURVE('',#501,#502,#503,.T.);
#432=EDGE_CURVE('',#501,#504,#505,.T.);
#433=EDGE_CURVE('',#504,#506,#507,.T.);
#434=EDGE_CURVE('',#508,#506,#509,.T.);
#435=EDGE_CURVE('',#510,#508,#511,.T.);
#436=EDGE_CURVE('',#502,#510,#512,.T.);
#437=FILL_AREA_STYLE('',(#513));
#438=EDGE_CURVE('',#514,#504,#515,.T.);
#439=EDGE_CURVE('',#514,#516,#517,.T.);
#440=EDGE_CURVE('',#518,#516,#519,.T.);
#441=EDGE_CURVE('',#506,#518,#520,.T.);
#442=FILL_AREA_STYLE('',(#521));
#443=EDGE_CURVE('',#508,#502,#522,.T.);
#444=FILL_AREA_STYLE('',(#523));
#445=EDGE_CURVE('',#516,#514,#524,.T.);
#446=FILL_AREA_STYLE('',(#525));
#447=EDGE_CURVE('',#518,#501,#526,.T.);
#448=FILL_AREA_STYLE('',(#527));
#449=DIRECTION('',(0.0,-1.0,0.0));
#450=DIRECTION('',(-6.12323399573677E-17,0.0,1.0));
#451=DIRECTION('',(0.0,1.0,0.0));
#452=DIRECTION('',(-6.12323399573677E-17,0.0,1.0));
#453=DIRECTION('',(-4.32978028117747E-17,-0.707106781186547,0.707106781186547));
#454=DIRECTION('',(0.0,-1.0,0.0));
#455=DIRECTION('',(6.12323399573677E-17,0.0,-1.0));
#456=DIRECTION('',(0.0,1.0,0.0));
#457=FILL_AREA_STYLE_COLOUR('',#528);
#458=VERTEX_POINT('',#529);
#459=VERTEX_POINT('',#530);
#460=LINE('',#531,#532);
#461=VERTEX_POINT('',#533);
#462=CIRCLE('',#534,7.75);
#463=VERTEX_POINT('',#535);
#464=LINE('',#536,#537);
#465=CIRCLE('',#538,7.75);
#466=FILL_AREA_STYLE_COLOUR('',#539);
#467=VERTEX_POINT('',#540);
#468=VERTEX_POINT('',#541);
#469=LINE('',#542,#543);
#470=VERTEX_POINT('',#544);
#471=CIRCLE('',#545,8.0);
#472=VERTEX_POINT('',#546);
#473=LINE('',#547,#548);
#474=CIRCLE('',#549,8.0);
#475=FILL_AREA_STYLE_COLOUR('',#550);
#476=VERTEX_POINT('',#551);
#477=LINE('',#552,#553);
#478=VERTEX_POINT('',#554);
#479=CIRCLE('',#555,6.79999999999995);
#480=LINE('',#556,#557);
#481=FILL_AREA_STYLE_COLOUR('',#558);
#482=CIRCLE('',#559,6.79999999999995);
#483=FILL_AREA_STYLE_COLOUR('',#560);
#484=CIRCLE('',#561,8.0);
#485=FILL_AREA_STYLE_COLOUR('',#562);
#486=CIRCLE('',#563,8.0);
#487=FILL_AREA_STYLE_COLOUR('',#564);
#488=CIRCLE('',#565,7.75);
#489=FILL_AREA_STYLE_COLOUR('',#566);
#490=CIRCLE('',#567,7.75);
#491=FILL_AREA_STYLE_COLOUR('',#568);
#492=DIRECTION('',(-6.12323399573677E-17,0.0,1.0));
#493=DIRECTION('',(0.0,-1.0,0.0));
#494=DIRECTION('',(0.0,-1.0,0.0));
#495=DIRECTION('',(6.12323399573677E-17,0.0,-1.0));
#496=DIRECTION('',(0.0,1.0,0.0));
#497=CARTESIAN_POINT('',(3.52085954754864E-15,7.5,-57.5));
#498=DIRECTION('',(1.0,0.0,6.12323399573677E-17));
#499=DIRECTION('',(4.32978028117747E-17,0.707106781186548,-0.707106781186548));
#500=FILL_AREA_STYLE_COLOUR('',#569);
#501=VERTEX_POINT('',#570);
#502=VERTEX_POINT('',#571);
#503=CIRCLE('',#572,0.5);
#504=VERTEX_POINT('',#573);
#505=CIRCLE('',#574,8.0);
#506=VERTEX_POINT('',#575);
#507=CIRCLE('',#576,8.0);
#508=VERTEX_POINT('',#577);
#509=CIRCLE('',#578,0.5);
#510=VERTEX_POINT('',#579);
#511=CIRCLE('',#580,7.5);
#512=CIRCLE('',#581,7.5);
#513=FILL_AREA_STYLE_COLOUR('',#582);
#514=VERTEX_POINT('',#583);
#515=LINE('',#584,#585);
#516=VERTEX_POINT('',#586);
#517=CIRCLE('',#587,8.0);
#518=VERTEX_POINT('',#588);
#519=LINE('',#589,#590);
#520=CIRCLE('',#591,8.0);
#521=FILL_AREA_STYLE_COLOUR('',#592);
#522=CIRCLE('',#593,7.5);
#523=FILL_AREA_STYLE_COLOUR('',#594);
#524=CIRCLE('',#595,8.0);
#525=FILL_AREA_STYLE_COLOUR('',#596);
#526=CIRCLE('',#597,8.0);
#527=FILL_AREA_STYLE_COLOUR('',#598);
#528=COLOUR_RGB('',0.498039215803146,0.498039215803146,0.498039215803146);
#529=CARTESIAN_POINT('',(0.0,7.75,0.0));
#530=CARTESIAN_POINT('',(1.34711147906209E-15,7.75,-22.0));
#531=CARTESIAN_POINT('',(-2.75545529808154E-16,7.75,-11.0));
#532=VECTOR('',#599,1.0);
#533=CARTESIAN_POINT('',(9.49101269339199E-16,-7.75,5.8115691578147E-32));
#534=AXIS2_PLACEMENT_3D('',#600,#601,#602);
#535=CARTESIAN_POINT('',(2.29621274840129E-15,-7.75,-22.0));
#536=CARTESIAN_POINT('',(1.62265700887024E-15,-7.75,-11.0));
#537=VECTOR('',#603,1.0);
#538=AXIS2_PLACEMENT_3D('',#604,#605,#606);
#539=COLOUR_RGB('',0.498039215803146,0.498039215803146,0.498039215803146);
#540=CARTESIAN_POINT('',(-2.98813818991954E-15,8.0,48.8));
#541=CARTESIAN_POINT('',(0.0,8.0,0.0));
#542=CARTESIAN_POINT('',(-2.47378653427765E-15,8.0,24.4));
#543=VECTOR('',#607,1.0);
#544=CARTESIAN_POINT('',(-2.00842075060166E-15,-8.0,48.8));
#545=AXIS2_PLACEMENT_3D('',#608,#609,#610);
#546=CARTESIAN_POINT('',(9.79717439317882E-16,-8.0,5.99903913064743E-32));
#547=CARTESIAN_POINT('',(-5.14351655641887E-16,-8.0,24.4));
#548=VECTOR('',#611,1.0);
#549=AXIS2_PLACEMENT_3D('',#612,#613,#614);
#550=COLOUR_RGB('',0.498039215803146,0.498039215803146,0.498039215803146);
#551=CARTESIAN_POINT('',(-3.06161699786838E-15,6.79999999999995,50.0));
#552=CARTESIAN_POINT('',(-3.931116225263E-15,7.39999999999998,49.4));
#553=VECTOR('',#615,1.0);
#554=CARTESIAN_POINT('',(-2.22885717444819E-15,-6.79999999999995,50.0));
#555=AXIS2_PLACEMENT_3D('',#616,#617,#618);
#556=CARTESIAN_POINT('',(-2.11863896252492E-15,-7.39999999999998,49.4));
#557=VECTOR('',#619,1.0);
#558=COLOUR_RGB('',0.498039215803146,0.498039215803146,0.498039215803146);
#559=AXIS2_PLACEMENT_3D('',#620,#621,#622);
#560=COLOUR_RGB('',0.498039215803146,0.498039215803146,0.498039215803146);
#561=AXIS2_PLACEMENT_3D('',#623,#624,#625);
#562=COLOUR_RGB('',0.498039215803146,0.498039215803146,0.498039215803146);
#563=AXIS2_PLACEMENT_3D('',#626,#627,#628);
#564=COLOUR_RGB('',0.498039215803146,0.498039215803146,0.498039215803146);
#565=AXIS2_PLACEMENT_3D('',#629,#630,#631);
#566=COLOUR_RGB('',0.498039215803146,0.498039215803146,0.498039215803146);
#567=AXIS2_PLACEMENT_3D('',#632,#633,#634);
#568=COLOUR_RGB('',0.498039215803146,0.498039215803146,0.498039215803146);
#569=COLOUR_RGB('',0.800000011920929,0.800000011920929,0.800000011920929);
#570=CARTESIAN_POINT('',(-8.0,-9.79717439317882E-16,-57.5));
#571=CARTESIAN_POINT('',(-7.5,-9.18485099360515E-16,-58.0));
#572=AXIS2_PLACEMENT_3D('',#635,#636,#637);
#573=CARTESIAN_POINT('',(3.52085954754864E-15,8.0,-57.5));
#574=AXIS2_PLACEMENT_3D('',#638,#639,#640);
#575=CARTESIAN_POINT('',(8.0,9.79717439317882E-16,-57.5));
#576=AXIS2_PLACEMENT_3D('',#641,#642,#643);
#577=CARTESIAN_POINT('',(7.5,9.18485099360515E-16,-58.0));
#578=AXIS2_PLACEMENT_3D('',#644,#645,#646);
#579=CARTESIAN_POINT('',(3.55147571752732E-15,7.5,-58.0));
#580=AXIS2_PLACEMENT_3D('',#647,#648,#649);
#581=AXIS2_PLACEMENT_3D('',#650,#651,#652);
#582=COLOUR_RGB('',0.800000011920929,0.800000011920929,0.800000011920929);
#583=CARTESIAN_POINT('',(1.34711147906209E-15,8.0,-22.0));
#584=CARTESIAN_POINT('',(1.45426807398748E-15,8.0,-39.75));
#585=VECTOR('',#653,1.0);
#586=CARTESIAN_POINT('',(2.32682891837997E-15,-8.0,-22.0));
#587=AXIS2_PLACEMENT_3D('',#654,#655,#656);
#588=CARTESIAN_POINT('',(4.50057698686652E-15,-8.0,-57.5));
#589=CARTESIAN_POINT('',(3.41370295262325E-15,-8.0,-39.75));
#590=VECTOR('',#657,1.0);
#591=AXIS2_PLACEMENT_3D('',#658,#659,#660);
#592=COLOUR_RGB('',0.800000011920929,0.800000011920929,0.800000011920929);
#593=AXIS2_PLACEMENT_3D('',#661,#662,#663);
#594=COLOUR_RGB('',0.800000011920929,0.800000011920929,0.800000011920929);
#595=AXIS2_PLACEMENT_3D('',#664,#665,#666);
#596=COLOUR_RGB('',0.800000011920929,0.800000011920929,0.800000011920929);
#597=AXIS2_PLACEMENT_3D('',#667,#668,#669);
#598=COLOUR_RGB('',0.800000011920929,0.800000011920929,0.800000011920929);
#599=DIRECTION('',(6.12323399573677E-17,0.0,-1.0));
#600=CARTESIAN_POINT('',(0.0,0.0,0.0));
#601=DIRECTION('',(6.12323399573677E-17,0.0,-1.0));
#602=DIRECTION('',(0.0,1.0,0.0));
#603=DIRECTION('',(-6.12323399573677E-17,-0.0,1.0));
#604=CARTESIAN_POINT('',(1.34711147906209E-15,0.0,-22.0));
#605=DIRECTION('',(6.12323399573677E-17,0.0,-1.0));
#606=DIRECTION('',(0.0,1.0,0.0));
#607=DIRECTION('',(6.12323399573677E-17,0.0,-1.0));
#608=CARTESIAN_POINT('',(-2.98813818991954E-15,0.0,48.8));
#609=DIRECTION('',(6.12323399573677E-17,0.0,-1.0));
#610=DIRECTION('',(0.0,1.0,0.0));
#611=DIRECTION('',(-6.12323399573677E-17,-0.0,1.0));
#612=CARTESIAN_POINT('',(0.0,0.0,0.0));
#613=DIRECTION('',(6.12323399573677E-17,0.0,-1.0));
#614=DIRECTION('',(0.0,1.0,0.0));
#615=DIRECTION('',(-4.32978028117747E-17,0.707106781186547,-0.707106781186548));
#616=CARTESIAN_POINT('',(-3.06161699786838E-15,0.0,50.0));
#617=DIRECTION('',(6.12323399573676E-17,0.0,-1.0));
#618=DIRECTION('',(0.0,1.0,0.0));
#619=DIRECTION('',(-1.29893408435324E-16,0.707106781186547,0.707106781186548));
#620=CARTESIAN_POINT('',(-3.06161699786838E-15,0.0,50.0));
#621=DIRECTION('',(6.12323399573676E-17,0.0,-1.0));
#622=DIRECTION('',(0.0,1.0,0.0));
#623=CARTESIAN_POINT('',(-2.98813818991954E-15,0.0,48.8));
#624=DIRECTION('',(6.12323399573677E-17,0.0,-1.0));
#625=DIRECTION('',(0.0,1.0,0.0));
#626=CARTESIAN_POINT('',(0.0,0.0,0.0));
#627=DIRECTION('',(6.12323399573677E-17,0.0,-1.0));
#628=DIRECTION('',(0.0,1.0,0.0));
#629=CARTESIAN_POINT('',(0.0,0.0,0.0));
#630=DIRECTION('',(6.12323399573677E-17,0.0,-1.0));
#631=DIRECTION('',(0.0,1.0,0.0));
#632=CARTESIAN_POINT('',(1.34711147906209E-15,0.0,-22.0));
#633=DIRECTION('',(6.12323399573677E-17,0.0,-1.0));
#634=DIRECTION('',(0.0,1.0,0.0));
#635=CARTESIAN_POINT('',(-7.5,-9.18485099360515E-16,-57.5));
#636=DIRECTION('',(1.22464679914735E-16,-1.0,7.49879891330929E-33));
#637=DIRECTION('',(-1.0,-1.22464679914735E-16,-6.12323399573677E-17));
#638=CARTESIAN_POINT('',(3.52085954754864E-15,0.0,-57.5));
#639=DIRECTION('',(6.12323399573677E-17,0.0,-1.0));
#640=DIRECTION('',(0.0,1.0,0.0));
#641=CARTESIAN_POINT('',(3.52085954754864E-15,0.0,-57.5));
#642=DIRECTION('',(6.12323399573677E-17,0.0,-1.0));
#643=DIRECTION('',(0.0,1.0,0.0));
#644=CARTESIAN_POINT('',(7.5,9.18485099360515E-16,-57.5));
#645=DIRECTION('',(1.22464679914735E-16,-1.0,7.49879891330929E-33));
#646=DIRECTION('',(1.0,1.22464679914735E-16,6.12323399573677E-17));
#647=CARTESIAN_POINT('',(3.55147571752732E-15,0.0,-58.0));
#648=DIRECTION('',(6.12323399573677E-17,0.0,-1.0));
#649=DIRECTION('',(0.0,1.0,0.0));
#650=CARTESIAN_POINT('',(3.55147571752732E-15,0.0,-58.0));
#651=DIRECTION('',(6.12323399573677E-17,0.0,-1.0));
#652=DIRECTION('',(0.0,1.0,0.0));
#653=DIRECTION('',(6.12323399573677E-17,0.0,-1.0));
#654=CARTESIAN_POINT('',(1.34711147906209E-15,0.0,-22.0));
#655=DIRECTION('',(6.12323399573677E-17,0.0,-1.0));
#656=DIRECTION('',(0.0,1.0,0.0));
#657=DIRECTION('',(-6.12323399573677E-17,-0.0,1.0));
#658=CARTESIAN_POINT('',(3.52085954754864E-15,0.0,-57.5));
#659=DIRECTION('',(6.12323399573677E-17,0.0,-1.0));
#660=DIRECTION('',(0.0,1.0,0.0));
#661=CARTESIAN_POINT('',(3.55147571752732E-15,0.0,-58.0));
#662=DIRECTION('',(6.12323399573677E-17,0.0,-1.0));
#663=DIRECTION('',(0.0,1.0,0.0));
#664=CARTESIAN_POINT('',(1.34711147906209E-15,0.0,-22.0));
#665=DIRECTION('',(6.12323399573677E-17,0.0,-1.0));
#666=DIRECTION('',(0.0,1.0,0.0));
#667=CARTESIAN_POINT('',(3.52085954754864E-15,0.0,-57.5));
#668=DIRECTION('',(6.12323399573677E-17,0.0,-1.0));
#669=DIRECTION('',(0.0,1.0,0.0));
#670=DIRECTION('',(0.0,0.0,1.0));
#671=DIRECTION('',(1.0,0.0,0.0));
#672=CARTESIAN_POINT('',(0.0,0.0,50.000000));
#673=AXIS2_PLACEMENT_3D('PCS', #672,#670,#671);
#674=CARTESIAN_POINT('',(0.0,0.0,0.000000));
#675=AXIS2_PLACEMENT_3D('MCS', #674,#670,#671);
#676=CARTESIAN_POINT('',(0.0,0.0,-58.000000));
#677=AXIS2_PLACEMENT_3D('CIP', #676,#670,#671);
ENDSEC;
END-ISO-10303-21;
