ISO-10303-21;
HEADER;
FILE_DESCRIPTION(('STEP AP214'),'1');
FILE_NAME('607847932-000-00-E43.stp','2022-11-15T11:14:40',(' '),(' '),'Spatial InterOp 3D',' ',' ');
FILE_SCHEMA(('AUTOMOTIVE_DESIGN { 1 0 10303 214 1 1 1 1 }'));
ENDSEC;
DATA;
#1=MECHANICAL_DESIGN_GEOMETRIC_PRESENTATION_REPRESENTATION(' ',(#12,#13,#14,#15,#16,#17,#18,#19,#20,#21,#22,#23,#24,#25,#26),#8);
#2=PRODUCT_DEFINITION_CONTEXT('',#27,'design');
#3=APPLICATION_PROTOCOL_DEFINITION('INTERNATIONAL STANDARD','automotive_design',1994,#27);
#4=PRODUCT_CATEGORY_RELATIONSHIP('NONE','NONE',#28,#29);
#5=SHAPE_DEFINITION_REPRESENTATION(#30,#31);
#6=SHAPE_DEFINITION_REPRESENTATION(#30,#32);
#7=SHAPE_DEFINITION_REPRESENTATION(#30,#33);
#8= (GEOMETRIC_REPRESENTATION_CONTEXT(3)GLOBAL_UNCERTAINTY_ASSIGNED_CONTEXT((#36))GLOBAL_UNIT_ASSIGNED_CONTEXT((#38,#39,#40))REPRESENTATION_CONTEXT('NONE','WORKSPACE'));
#12=STYLED_ITEM('',(#42),#43);
#13=STYLED_ITEM('',(#44),#45);
#14=STYLED_ITEM('',(#46),#47);
#15=STYLED_ITEM('',(#48),#49);
#16=STYLED_ITEM('',(#50),#51);
#17=STYLED_ITEM('',(#52),#53);
#18=STYLED_ITEM('',(#54),#55);
#19=STYLED_ITEM('',(#56),#57);
#20=STYLED_ITEM('',(#58),#59);
#21=STYLED_ITEM('',(#60),#61);
#22=STYLED_ITEM('',(#62),#63);
#23=STYLED_ITEM('',(#64),#65);
#24=STYLED_ITEM('',(#66),#67);
#25=STYLED_ITEM('',(#68),#69);
#26=STYLED_ITEM('',(#70),#71);
#27=APPLICATION_CONTEXT(' ');
#28=PRODUCT_CATEGORY('part','NONE');
#29=PRODUCT_RELATED_PRODUCT_CATEGORY('detail',' ',(#72));
#30=PRODUCT_DEFINITION_SHAPE('NONE','NONE',#73);
#31=ADVANCED_BREP_SHAPE_REPRESENTATION('1',(#74,#75),#8);
#32=ADVANCED_BREP_SHAPE_REPRESENTATION('2',(#76,#77),#8);
#33=GEOMETRICALLY_BOUNDED_SURFACE_SHAPE_REPRESENTATION('3',(#78,#79),#8);
#36=UNCERTAINTY_MEASURE_WITH_UNIT(LENGTH_MEASURE(1.0E-06),#38,'','');
#38= (CONVERSION_BASED_UNIT('MILLIMETRE',#82)LENGTH_UNIT()NAMED_UNIT(#85));
#39= (NAMED_UNIT(#87)PLANE_ANGLE_UNIT()SI_UNIT($,.RADIAN.));
#40= (NAMED_UNIT(#87)SOLID_ANGLE_UNIT()SI_UNIT($,.STERADIAN.));
#42=PRESENTATION_STYLE_ASSIGNMENT((#93));
#43=COMPOSITE_CURVE('',(#94,#95,#96,#97,#98),.U.);
#44=PRESENTATION_STYLE_ASSIGNMENT((#99));
#45=ADVANCED_FACE('',(#100),#101,.T.);
#46=PRESENTATION_STYLE_ASSIGNMENT((#102));
#47=ADVANCED_FACE('',(#103),#104,.T.);
#48=PRESENTATION_STYLE_ASSIGNMENT((#105));
#49=ADVANCED_FACE('',(#106),#107,.T.);
#50=PRESENTATION_STYLE_ASSIGNMENT((#108));
#51=ADVANCED_FACE('',(#109),#110,.T.);
#52=PRESENTATION_STYLE_ASSIGNMENT((#111));
#53=ADVANCED_FACE('',(#112),#113,.T.);
#54=PRESENTATION_STYLE_ASSIGNMENT((#114));
#55=ADVANCED_FACE('',(#115),#116,.T.);
#56=PRESENTATION_STYLE_ASSIGNMENT((#117));
#57=COMPOSITE_CURVE('',(#118,#119,#120,#121,#122),.U.);
#58=PRESENTATION_STYLE_ASSIGNMENT((#123));
#59=ADVANCED_FACE('',(#124),#125,.T.);
#60=PRESENTATION_STYLE_ASSIGNMENT((#126));
#61=ADVANCED_FACE('',(#127),#128,.F.);
#62=PRESENTATION_STYLE_ASSIGNMENT((#129));
#63=ADVANCED_FACE('',(#130),#131,.T.);
#64=PRESENTATION_STYLE_ASSIGNMENT((#132));
#65=ADVANCED_FACE('',(#133),#134,.T.);
#66=PRESENTATION_STYLE_ASSIGNMENT((#135));
#67=ADVANCED_FACE('',(#136),#137,.F.);
#68=PRESENTATION_STYLE_ASSIGNMENT((#138));
#69=ADVANCED_FACE('',(#139),#140,.T.);
#70=PRESENTATION_STYLE_ASSIGNMENT((#141));
#71=ADVANCED_FACE('',(#142),#143,.T.);
#72=PRODUCT('1','','PART--DESC',(#144));
#73=PRODUCT_DEFINITION('','NONE',#145,#2);
#74=MANIFOLD_SOLID_BREP('1',#146);
#75=AXIS2_PLACEMENT_3D('',#147,#148,#149);
#76=MANIFOLD_SOLID_BREP('2',#150);
#77=AXIS2_PLACEMENT_3D('',#151,#152,#153);
#78=GEOMETRIC_SET('3',(#43,#57));
#79=AXIS2_PLACEMENT_3D('',#154,#155,#156);
#82=LENGTH_MEASURE_WITH_UNIT(LENGTH_MEASURE(1.0),#157);
#85=DIMENSIONAL_EXPONENTS(1.0,0.0,0.0,0.0,0.0,0.0,0.0);
#87=DIMENSIONAL_EXPONENTS(0.0,0.0,0.0,0.0,0.0,0.0,0.0);
#93=CURVE_STYLE('',#158,POSITIVE_LENGTH_MEASURE(1.0E-06),#159);
#94=COMPOSITE_CURVE_SEGMENT(.CONTINUOUS.,.T.,#160);
#95=COMPOSITE_CURVE_SEGMENT(.CONTINUOUS.,.T.,#161);
#96=COMPOSITE_CURVE_SEGMENT(.CONTINUOUS.,.T.,#162);
#97=COMPOSITE_CURVE_SEGMENT(.CONTINUOUS.,.T.,#163);
#98=COMPOSITE_CURVE_SEGMENT(.CONTINUOUS.,.T.,#164);
#99=SURFACE_STYLE_USAGE(.BOTH.,#165);
#100=FACE_OUTER_BOUND('',#166,.T.);
#101=CYLINDRICAL_SURFACE('',#167,2.99999999999999);
#102=SURFACE_STYLE_USAGE(.BOTH.,#168);
#103=FACE_OUTER_BOUND('',#169,.T.);
#104=CONICAL_SURFACE('',#170,2.83999999999997,0.78539816339736);
#105=SURFACE_STYLE_USAGE(.BOTH.,#171);
#106=FACE_OUTER_BOUND('',#172,.T.);
#107=CONICAL_SURFACE('',#173,2.83999999999997,0.78539816339736);
#108=SURFACE_STYLE_USAGE(.BOTH.,#174);
#109=FACE_OUTER_BOUND('',#175,.T.);
#110=CYLINDRICAL_SURFACE('',#176,2.99999999999999);
#111=SURFACE_STYLE_USAGE(.BOTH.,#177);
#112=FACE_OUTER_BOUND('',#178,.T.);
#113=PLANE('',#179);
#114=SURFACE_STYLE_USAGE(.BOTH.,#180);
#115=FACE_OUTER_BOUND('',#181,.T.);
#116=PLANE('',#182);
#117=CURVE_STYLE('',#183,POSITIVE_LENGTH_MEASURE(1.0E-06),#184);
#118=COMPOSITE_CURVE_SEGMENT(.CONTINUOUS.,.T.,#185);
#119=COMPOSITE_CURVE_SEGMENT(.CONTINUOUS.,.T.,#186);
#120=COMPOSITE_CURVE_SEGMENT(.CONTINUOUS.,.T.,#187);
#121=COMPOSITE_CURVE_SEGMENT(.CONTINUOUS.,.T.,#188);
#122=COMPOSITE_CURVE_SEGMENT(.CONTINUOUS.,.T.,#189);
#123=SURFACE_STYLE_USAGE(.BOTH.,#190);
#124=FACE_OUTER_BOUND('',#191,.T.);
#125=CONICAL_SURFACE('',#192,1.58964466094068,0.785398163397444);
#126=SURFACE_STYLE_USAGE(.BOTH.,#193);
#127=FACE_OUTER_BOUND('',#194,.T.);
#128=CONICAL_SURFACE('',#195,0.049931534743962,1.48352986419517);
#129=SURFACE_STYLE_USAGE(.BOTH.,#196);
#130=FACE_OUTER_BOUND('',#197,.T.);
#131=TOROIDAL_SURFACE('',#198,0.108578643762771,0.0999999999999905);
#132=SURFACE_STYLE_USAGE(.BOTH.,#199);
#133=FACE_OUTER_BOUND('',#200,.T.);
#134=TOROIDAL_SURFACE('',#201,0.108578643762771,0.0999999999999905);
#135=SURFACE_STYLE_USAGE(.BOTH.,#202);
#136=FACE_OUTER_BOUND('',#203,.T.);
#137=CONICAL_SURFACE('',#204,0.049931534743962,1.48352986419517);
#138=SURFACE_STYLE_USAGE(.BOTH.,#205);
#139=FACE_OUTER_BOUND('',#206,.T.);
#140=PLANE('',#207);
#141=SURFACE_STYLE_USAGE(.BOTH.,#208);
#142=FACE_OUTER_BOUND('',#209,.T.);
#143=CONICAL_SURFACE('',#210,1.58964466094068,0.785398163397444);
#144=PRODUCT_CONTEXT('',#27,'mechanical');
#145=PRODUCT_DEFINITION_FORMATION_WITH_SPECIFIED_SOURCE(' ','NONE',#72,.NOT_KNOWN.);
#146=CLOSED_SHELL('',(#45,#47,#49,#51,#53,#55));
#147=CARTESIAN_POINT('',(0.0,0.0,0.0));
#148=DIRECTION('',(0.0,0.0,1.0));
#149=DIRECTION('',(1.0,0.0,0.0));
#150=CLOSED_SHELL('',(#59,#61,#63,#65,#67,#69,#71));
#151=CARTESIAN_POINT('',(0.0,0.0,0.0));
#152=DIRECTION('',(0.0,0.0,1.0));
#153=DIRECTION('',(1.0,0.0,0.0));
#154=CARTESIAN_POINT('',(0.0,0.0,0.0));
#155=DIRECTION('',(0.0,0.0,1.0));
#156=DIRECTION('',(1.0,0.0,0.0));
#157= (NAMED_UNIT(#85)LENGTH_UNIT()SI_UNIT(.MILLI.,.METRE.));
#158=DRAUGHTING_PRE_DEFINED_CURVE_FONT('continuous');
#159=COLOUR_RGB('',0.498039215803146,0.498039215803146,0.498039215803146);
#160=TRIMMED_CURVE('',#212,(PARAMETER_VALUE(0.0)),(PARAMETER_VALUE(0.452548339959421)),.T.,.UNSPECIFIED.);
#161=TRIMMED_CURVE('',#213,(PARAMETER_VALUE(0.0)),(PARAMETER_VALUE(56.8300000000001)),.T.,.UNSPECIFIED.);
#162=TRIMMED_CURVE('',#214,(PARAMETER_VALUE(0.0)),(PARAMETER_VALUE(3.0)),.T.,.UNSPECIFIED.);
#163=TRIMMED_CURVE('',#215,(PARAMETER_VALUE(0.0)),(PARAMETER_VALUE(57.15)),.T.,.UNSPECIFIED.);
#164=TRIMMED_CURVE('',#216,(PARAMETER_VALUE(0.0)),(PARAMETER_VALUE(2.67999999999998)),.T.,.UNSPECIFIED.);
#165=SURFACE_SIDE_STYLE('',(#217));
#166=EDGE_LOOP('',(#218,#219,#220,#221));
#167=AXIS2_PLACEMENT_3D('',#222,#223,#224);
#168=SURFACE_SIDE_STYLE('',(#225));
#169=EDGE_LOOP('',(#226,#227,#228,#229));
#170=AXIS2_PLACEMENT_3D('',#230,#231,#232);
#171=SURFACE_SIDE_STYLE('',(#233));
#172=EDGE_LOOP('',(#234,#235,#236,#237));
#173=AXIS2_PLACEMENT_3D('',#238,#239,#240);
#174=SURFACE_SIDE_STYLE('',(#241));
#175=EDGE_LOOP('',(#242,#243,#244,#245));
#176=AXIS2_PLACEMENT_3D('',#246,#247,#248);
#177=SURFACE_SIDE_STYLE('',(#249));
#178=EDGE_LOOP('',(#250,#251));
#179=AXIS2_PLACEMENT_3D('',#252,#253,#254);
#180=SURFACE_SIDE_STYLE('',(#255));
#181=EDGE_LOOP('',(#256,#257));
#182=AXIS2_PLACEMENT_3D('',#258,#259,#260);
#183=DRAUGHTING_PRE_DEFINED_CURVE_FONT('continuous');
#184=COLOUR_RGB('',0.0,0.0,1.0);
#185=TRIMMED_CURVE('',#261,(PARAMETER_VALUE(0.0)),(PARAMETER_VALUE(3.0)),.T.,.UNSPECIFIED.);
#186=TRIMMED_CURVE('',#262,(PARAMETER_VALUE(0.0)),(PARAMETER_VALUE(2.84088258332402)),.T.,.UNSPECIFIED.);
#187=TRIMMED_CURVE('',#263,(PARAMETER_VALUE(0.0)),(PARAMETER_VALUE(0.100244530189948)),.T.,.UNSPECIFIED.);
#188=TRIMMED_CURVE('',#264,(PARAMETER_VALUE(-0.43633231299851)),(PARAMETER_VALUE(0.436332312998529)),.T.,.UNSPECIFIED.);
#189=TRIMMED_CURVE('',#265,(PARAMETER_VALUE(0.0)),(PARAMETER_VALUE(3.98908729652602)),.T.,.UNSPECIFIED.);
#190=SURFACE_SIDE_STYLE('',(#266));
#191=EDGE_LOOP('',(#267,#268,#269,#270,#271));
#192=AXIS2_PLACEMENT_3D('',#272,#273,#274);
#193=SURFACE_SIDE_STYLE('',(#275));
#194=EDGE_LOOP('',(#276,#277,#278,#279));
#195=AXIS2_PLACEMENT_3D('',#280,#281,#282);
#196=SURFACE_SIDE_STYLE('',(#283));
#197=EDGE_LOOP('',(#284,#285,#286,#287,#288,#289));
#198=AXIS2_PLACEMENT_3D('',#290,#291,#292);
#199=SURFACE_SIDE_STYLE('',(#293));
#200=EDGE_LOOP('',(#294,#295,#296,#297,#298,#299));
#201=AXIS2_PLACEMENT_3D('',#300,#301,#302);
#202=SURFACE_SIDE_STYLE('',(#303));
#203=EDGE_LOOP('',(#304,#305,#306,#307));
#204=AXIS2_PLACEMENT_3D('',#308,#309,#310);
#205=SURFACE_SIDE_STYLE('',(#311));
#206=EDGE_LOOP('',(#312,#313));
#207=AXIS2_PLACEMENT_3D('',#314,#315,#316);
#208=SURFACE_SIDE_STYLE('',(#317));
#209=EDGE_LOOP('',(#318,#319,#320,#321,#322));
#210=AXIS2_PLACEMENT_3D('',#323,#324,#325);
#212=LINE('',#326,#327);
#213=LINE('',#328,#329);
#214=LINE('',#330,#331);
#215=LINE('',#332,#333);
#216=LINE('',#334,#335);
#217=SURFACE_STYLE_FILL_AREA(#336);
#218=ORIENTED_EDGE('',*,*,#337,.F.);
#219=ORIENTED_EDGE('',*,*,#338,.T.);
#220=ORIENTED_EDGE('',*,*,#339,.F.);
#221=ORIENTED_EDGE('',*,*,#340,.F.);
#222=CARTESIAN_POINT('',(28.735,0.0,0.0));
#223=DIRECTION('',(1.0,4.24204618364242E-14,0.0));
#224=DIRECTION('',(-4.24204618364242E-14,1.0,0.0));
#225=SURFACE_STYLE_FILL_AREA(#341);
#226=ORIENTED_EDGE('',*,*,#342,.F.);
#227=ORIENTED_EDGE('',*,*,#343,.T.);
#228=ORIENTED_EDGE('',*,*,#344,.F.);
#229=ORIENTED_EDGE('',*,*,#338,.F.);
#230=CARTESIAN_POINT('',(0.159999999999911,0.0,0.0));
#231=DIRECTION('',(1.0,4.24204618364242E-14,-0.0));
#232=DIRECTION('',(-4.24204618364242E-14,1.0,0.0));
#233=SURFACE_STYLE_FILL_AREA(#345);
#234=ORIENTED_EDGE('',*,*,#342,.T.);
#235=ORIENTED_EDGE('',*,*,#346,.F.);
#236=ORIENTED_EDGE('',*,*,#344,.T.);
#237=ORIENTED_EDGE('',*,*,#347,.T.);
#238=CARTESIAN_POINT('',(0.159999999999911,0.0,0.0));
#239=DIRECTION('',(1.0,4.24204618364242E-14,-0.0));
#240=DIRECTION('',(-4.24204618364242E-14,1.0,0.0));
#241=SURFACE_STYLE_FILL_AREA(#348);
#242=ORIENTED_EDGE('',*,*,#337,.T.);
#243=ORIENTED_EDGE('',*,*,#349,.F.);
#244=ORIENTED_EDGE('',*,*,#339,.T.);
#245=ORIENTED_EDGE('',*,*,#346,.T.);
#246=CARTESIAN_POINT('',(28.735,0.0,0.0));
#247=DIRECTION('',(1.0,4.24204618364242E-14,0.0));
#248=DIRECTION('',(-4.24204618364242E-14,1.0,0.0));
#249=SURFACE_STYLE_FILL_AREA(#350);
#250=ORIENTED_EDGE('',*,*,#340,.T.);
#251=ORIENTED_EDGE('',*,*,#349,.T.);
#252=CARTESIAN_POINT('',(57.15,1.5,0.0));
#253=DIRECTION('',(1.0,0.0,0.0));
#254=DIRECTION('',(0.0,1.0,0.0));
#255=SURFACE_STYLE_FILL_AREA(#351);
#256=ORIENTED_EDGE('',*,*,#343,.F.);
#257=ORIENTED_EDGE('',*,*,#347,.F.);
#258=CARTESIAN_POINT('',(-5.6843418860808E-14,1.33999999999999,0.0));
#259=DIRECTION('',(-1.0,-4.24204618364242E-14,0.0));
#260=DIRECTION('',(4.24204618364242E-14,-1.0,0.0));
#261=LINE('',#352,#353);
#262=LINE('',#354,#355);
#263=LINE('',#356,#357);
#264=CIRCLE('',#358,0.0999999999999905);
#265=LINE('',#359,#360);
#266=SURFACE_STYLE_FILL_AREA(#361);
#267=ORIENTED_EDGE('',*,*,#362,.F.);
#268=ORIENTED_EDGE('',*,*,#363,.T.);
#269=ORIENTED_EDGE('',*,*,#364,.F.);
#270=ORIENTED_EDGE('',*,*,#365,.F.);
#271=ORIENTED_EDGE('',*,*,#366,.F.);
#272=CARTESIAN_POINT('',(58.5603553390594,0.0,0.0));
#273=DIRECTION('',(-1.0,-0.0,-0.0));
#274=DIRECTION('',(0.0,1.0,0.0));
#275=SURFACE_STYLE_FILL_AREA(#367);
#276=ORIENTED_EDGE('',*,*,#368,.T.);
#277=ORIENTED_EDGE('',*,*,#369,.T.);
#278=ORIENTED_EDGE('',*,*,#370,.T.);
#279=ORIENTED_EDGE('',*,*,#371,.T.);
#280=CARTESIAN_POINT('',(59.9952510265666,0.0,0.0));
#281=DIRECTION('',(1.0,-0.0,-0.0));
#282=DIRECTION('',(0.0,1.0,0.0));
#283=SURFACE_STYLE_FILL_AREA(#372);
#284=ORIENTED_EDGE('',*,*,#373,.F.);
#285=ORIENTED_EDGE('',*,*,#374,.T.);
#286=ORIENTED_EDGE('',*,*,#366,.T.);
#287=ORIENTED_EDGE('',*,*,#375,.F.);
#288=ORIENTED_EDGE('',*,*,#370,.F.);
#289=ORIENTED_EDGE('',*,*,#376,.F.);
#290=CARTESIAN_POINT('',(59.9,0.0,0.0));
#291=DIRECTION('',(1.0,0.0,0.0));
#292=DIRECTION('',(0.0,0.0,-1.0));
#293=SURFACE_STYLE_FILL_AREA(#377);
#294=ORIENTED_EDGE('',*,*,#373,.T.);
#295=ORIENTED_EDGE('',*,*,#378,.F.);
#296=ORIENTED_EDGE('',*,*,#371,.F.);
#297=ORIENTED_EDGE('',*,*,#375,.T.);
#298=ORIENTED_EDGE('',*,*,#365,.T.);
#299=ORIENTED_EDGE('',*,*,#379,.T.);
#300=CARTESIAN_POINT('',(59.9,0.0,0.0));
#301=DIRECTION('',(1.0,0.0,0.0));
#302=DIRECTION('',(0.0,0.0,-1.0));
#303=SURFACE_STYLE_FILL_AREA(#380);
#304=ORIENTED_EDGE('',*,*,#368,.F.);
#305=ORIENTED_EDGE('',*,*,#378,.T.);
#306=ORIENTED_EDGE('',*,*,#376,.T.);
#307=ORIENTED_EDGE('',*,*,#369,.F.);
#308=CARTESIAN_POINT('',(59.9952510265666,0.0,0.0));
#309=DIRECTION('',(1.0,-0.0,-0.0));
#310=DIRECTION('',(0.0,1.0,0.0));
#311=SURFACE_STYLE_FILL_AREA(#381);
#312=ORIENTED_EDGE('',*,*,#363,.F.);
#313=ORIENTED_EDGE('',*,*,#382,.F.);
#314=CARTESIAN_POINT('',(57.15,1.5,0.0));
#315=DIRECTION('',(-1.0,0.0,0.0));
#316=DIRECTION('',(0.0,-1.0,0.0));
#317=SURFACE_STYLE_FILL_AREA(#383);
#318=ORIENTED_EDGE('',*,*,#362,.T.);
#319=ORIENTED_EDGE('',*,*,#374,.F.);
#320=ORIENTED_EDGE('',*,*,#379,.F.);
#321=ORIENTED_EDGE('',*,*,#364,.T.);
#322=ORIENTED_EDGE('',*,*,#382,.T.);
#323=CARTESIAN_POINT('',(58.5603553390594,0.0,0.0));
#324=DIRECTION('',(-1.0,-0.0,-0.0));
#325=DIRECTION('',(0.0,1.0,0.0));
#326=CARTESIAN_POINT('',(-1.13686837721616E-13,2.67999999999998,0.0));
#327=VECTOR('',#384,1.0);
#328=CARTESIAN_POINT('',(0.319999999999936,2.99999999999997,0.0));
#329=VECTOR('',#385,1.0);
#330=CARTESIAN_POINT('',(57.15,3.0,0.0));
#331=VECTOR('',#386,1.0);
#332=CARTESIAN_POINT('',(57.15,0.0,0.0));
#333=VECTOR('',#387,1.0);
#334=CARTESIAN_POINT('',(0.0,0.0,0.0));
#335=VECTOR('',#388,1.0);
#336=FILL_AREA_STYLE('',(#389));
#337=EDGE_CURVE('',#390,#391,#392,.T.);
#338=EDGE_CURVE('',#390,#393,#394,.T.);
#339=EDGE_CURVE('',#395,#393,#396,.T.);
#340=EDGE_CURVE('',#391,#395,#397,.T.);
#341=FILL_AREA_STYLE('',(#398));
#342=EDGE_CURVE('',#399,#390,#400,.T.);
#343=EDGE_CURVE('',#399,#401,#402,.T.);
#344=EDGE_CURVE('',#393,#401,#403,.T.);
#345=FILL_AREA_STYLE('',(#404));
#346=EDGE_CURVE('',#393,#390,#405,.T.);
#347=EDGE_CURVE('',#401,#399,#406,.T.);
#348=FILL_AREA_STYLE('',(#407));
#349=EDGE_CURVE('',#395,#391,#408,.T.);
#350=FILL_AREA_STYLE('',(#409));
#351=FILL_AREA_STYLE('',(#410));
#352=CARTESIAN_POINT('',(57.15,3.0,0.0));
#353=VECTOR('',#411,1.0);
#354=CARTESIAN_POINT('',(57.15,0.0,0.0));
#355=VECTOR('',#412,1.0);
#356=CARTESIAN_POINT('',(59.9908825833241,2.77555756156289E-17,0.0));
#357=VECTOR('',#413,1.0);
#358=AXIS2_PLACEMENT_3D('',#414,#415,#416);
#359=CARTESIAN_POINT('',(59.9707106781187,0.17928932188135,0.0));
#360=VECTOR('',#417,1.0);
#361=FILL_AREA_STYLE('',(#418));
#362=EDGE_CURVE('',#419,#420,#421,.T.);
#363=EDGE_CURVE('',#419,#422,#423,.T.);
#364=EDGE_CURVE('',#424,#422,#425,.T.);
#365=EDGE_CURVE('',#426,#424,#427,.T.);
#366=EDGE_CURVE('',#420,#426,#428,.T.);
#367=FILL_AREA_STYLE('',(#429));
#368=EDGE_CURVE('',#430,#431,#432,.T.);
#369=EDGE_CURVE('',#431,#433,#434,.T.);
#370=EDGE_CURVE('',#433,#435,#436,.T.);
#371=EDGE_CURVE('',#435,#430,#437,.T.);
#372=FILL_AREA_STYLE('',(#438));
#373=EDGE_CURVE('',#439,#440,#441,.T.);
#374=EDGE_CURVE('',#439,#420,#442,.T.);
#375=EDGE_CURVE('',#435,#426,#443,.T.);
#376=EDGE_CURVE('',#440,#433,#444,.T.);
#377=FILL_AREA_STYLE('',(#445));
#378=EDGE_CURVE('',#430,#440,#446,.T.);
#379=EDGE_CURVE('',#424,#439,#447,.T.);
#380=FILL_AREA_STYLE('',(#448));
#381=FILL_AREA_STYLE('',(#449));
#382=EDGE_CURVE('',#422,#419,#450,.T.);
#383=FILL_AREA_STYLE('',(#451));
#384=DIRECTION('',(0.70710678118661,0.707106781186485,0.0));
#385=DIRECTION('',(1.0,5.00118061418335E-16,0.0));
#386=DIRECTION('',(0.0,-1.0,0.0));
#387=DIRECTION('',(-1.0,0.0,0.0));
#388=DIRECTION('',(-4.24204618364242E-14,1.0,0.0));
#389=FILL_AREA_STYLE_COLOUR('',#452);
#390=VERTEX_POINT('',#453);
#391=VERTEX_POINT('',#454);
#392=LINE('',#455,#456);
#393=VERTEX_POINT('',#457);
#394=CIRCLE('',#458,2.99999999999997);
#395=VERTEX_POINT('',#459);
#396=LINE('',#460,#461);
#397=CIRCLE('',#462,3.0);
#398=FILL_AREA_STYLE_COLOUR('',#463);
#399=VERTEX_POINT('',#464);
#400=LINE('',#465,#466);
#401=VERTEX_POINT('',#467);
#402=CIRCLE('',#468,2.67999999999998);
#403=LINE('',#469,#470);
#404=FILL_AREA_STYLE_COLOUR('',#471);
#405=CIRCLE('',#472,2.99999999999997);
#406=CIRCLE('',#473,2.67999999999998);
#407=FILL_AREA_STYLE_COLOUR('',#474);
#408=CIRCLE('',#475,3.0);
#409=FILL_AREA_STYLE_COLOUR('',#476);
#410=FILL_AREA_STYLE_COLOUR('',#477);
#411=DIRECTION('',(0.0,-1.0,0.0));
#412=DIRECTION('',(1.0,9.77005377784853E-18,0.0));
#413=DIRECTION('',(0.0871557427476672,0.996194698091745,0.0));
#414=CARTESIAN_POINT('',(59.9,0.108578643762771,0.0));
#415=DIRECTION('',(0.0,0.0,1.0));
#416=DIRECTION('',(0.939692620786217,0.342020143324821,-0.0));
#417=DIRECTION('',(-0.70710678118655,0.707106781186545,0.0));
#418=FILL_AREA_STYLE_COLOUR('',#478);
#419=VERTEX_POINT('',#479);
#420=VERTEX_POINT('',#480);
#421=LINE('',#481,#482);
#422=VERTEX_POINT('',#483);
#423=CIRCLE('',#484,3.0);
#424=VERTEX_POINT('',#485);
#425=LINE('',#486,#487);
#426=VERTEX_POINT('',#488);
#427=CIRCLE('',#489,0.17928932188135);
#428=CIRCLE('',#490,0.17928932188135);
#429=FILL_AREA_STYLE_COLOUR('',#491);
#430=VERTEX_POINT('',#492);
#431=VERTEX_POINT('',#493);
#432=LINE('',#494,#495);
#433=VERTEX_POINT('',#496);
#434=LINE('',#497,#498);
#435=VERTEX_POINT('',#499);
#436=CIRCLE('',#500,0.0998630694879239);
#437=CIRCLE('',#501,0.0998630694879239);
#438=FILL_AREA_STYLE_COLOUR('',#502);
#439=VERTEX_POINT('',#503);
#440=VERTEX_POINT('',#504);
#441=CIRCLE('',#505,0.0999999999999905);
#442=CIRCLE('',#506,0.17928932188135);
#443=CIRCLE('',#507,0.0999999999999905);
#444=CIRCLE('',#508,0.0998630694879239);
#445=FILL_AREA_STYLE_COLOUR('',#509);
#446=CIRCLE('',#510,0.0998630694879239);
#447=CIRCLE('',#511,0.17928932188135);
#448=FILL_AREA_STYLE_COLOUR('',#512);
#449=FILL_AREA_STYLE_COLOUR('',#513);
#450=CIRCLE('',#514,3.0);
#451=FILL_AREA_STYLE_COLOUR('',#515);
#452=COLOUR_RGB('',0.498039215803146,0.498039215803146,0.498039215803146);
#453=CARTESIAN_POINT('',(0.319999999999936,2.99999999999997,0.0));
#454=CARTESIAN_POINT('',(57.15,3.0,0.0));
#455=CARTESIAN_POINT('',(28.7349999999999,2.99999999999999,-3.67394039744204E-16));
#456=VECTOR('',#516,1.0);
#457=CARTESIAN_POINT('',(0.320000000000064,-2.99999999999997,3.67394039744203E-16));
#458=AXIS2_PLACEMENT_3D('',#517,#518,#519);
#459=CARTESIAN_POINT('',(57.1500000000002,-3.0,3.67394039744354E-16));
#460=CARTESIAN_POINT('',(28.7350000000001,-2.99999999999999,3.67394039744204E-16));
#461=VECTOR('',#520,1.0);
#462=AXIS2_PLACEMENT_3D('',#521,#522,#523);
#463=COLOUR_RGB('',0.498039215803146,0.498039215803146,0.498039215803146);
#464=CARTESIAN_POINT('',(-1.13686837721616E-13,2.67999999999998,0.0));
#465=CARTESIAN_POINT('',(0.159999999999791,2.83999999999997,-3.47799690957845E-16));
#466=VECTOR('',#524,1.0);
#467=CARTESIAN_POINT('',(-1.6408306828597E-28,-2.67999999999998,3.28205342171487E-16));
#468=AXIS2_PLACEMENT_3D('',#525,#526,#527);
#469=CARTESIAN_POINT('',(0.160000000000032,-2.83999999999997,3.47799690957845E-16));
#470=VECTOR('',#528,1.0);
#471=COLOUR_RGB('',0.498039215803146,0.498039215803146,0.498039215803146);
#472=AXIS2_PLACEMENT_3D('',#529,#530,#531);
#473=AXIS2_PLACEMENT_3D('',#532,#533,#534);
#474=COLOUR_RGB('',0.498039215803146,0.498039215803146,0.498039215803146);
#475=AXIS2_PLACEMENT_3D('',#535,#536,#537);
#476=COLOUR_RGB('',0.498039215803146,0.498039215803146,0.498039215803146);
#477=COLOUR_RGB('',0.498039215803146,0.498039215803146,0.498039215803146);
#478=COLOUR_RGB('',0.800000011920929,0.800000011920929,0.800000011920929);
#479=CARTESIAN_POINT('',(57.15,3.0,0.0));
#480=CARTESIAN_POINT('',(59.9707106781187,0.17928932188135,0.0));
#481=CARTESIAN_POINT('',(58.5603553390594,1.58964466094068,-1.94675324580268E-16));
#482=VECTOR('',#538,1.0);
#483=CARTESIAN_POINT('',(57.15,-3.0,3.67394039744206E-16));
#484=AXIS2_PLACEMENT_3D('',#539,#540,#541);
#485=CARTESIAN_POINT('',(59.9707106781187,-0.17928932188135,2.19566094163295E-17));
#486=CARTESIAN_POINT('',(58.5603553390594,-1.58964466094068,1.94675324580268E-16));
#487=VECTOR('',#542,1.0);
#488=CARTESIAN_POINT('',(59.9707106781187,2.19566094163295E-17,0.17928932188135));
#489=AXIS2_PLACEMENT_3D('',#543,#544,#545);
#490=AXIS2_PLACEMENT_3D('',#546,#547,#548);
#491=COLOUR_RGB('',0.800000011920929,0.800000011920929,0.800000011920929);
#492=CARTESIAN_POINT('',(59.9996194698091,-0.0998630694879239,1.22296988401416E-17));
#493=CARTESIAN_POINT('',(59.9908825833241,2.77555756156289E-17,0.0));
#494=CARTESIAN_POINT('',(59.9952510265666,-0.049931534743962,6.11484942007079E-18));
#495=VECTOR('',#549,1.0);
#496=CARTESIAN_POINT('',(59.9996194698091,0.0998630694879239,0.0));
#497=CARTESIAN_POINT('',(59.9952510265666,0.049931534743962,-6.11484942007079E-18));
#498=VECTOR('',#550,1.0);
#499=CARTESIAN_POINT('',(59.9996194698091,1.22296988401416E-17,0.0998630694879239));
#500=AXIS2_PLACEMENT_3D('',#551,#552,#553);
#501=AXIS2_PLACEMENT_3D('',#554,#555,#556);
#502=COLOUR_RGB('',0.800000011920929,0.800000011920929,0.800000011920929);
#503=CARTESIAN_POINT('',(59.9707106781187,-2.19566094163295E-17,-0.17928932188135));
#504=CARTESIAN_POINT('',(59.9996194698091,-1.22296988401416E-17,-0.0998630694879239));
#505=AXIS2_PLACEMENT_3D('',#557,#558,#559);
#506=AXIS2_PLACEMENT_3D('',#560,#561,#562);
#507=AXIS2_PLACEMENT_3D('',#563,#564,#565);
#508=AXIS2_PLACEMENT_3D('',#566,#567,#568);
#509=COLOUR_RGB('',0.800000011920929,0.800000011920929,0.800000011920929);
#510=AXIS2_PLACEMENT_3D('',#569,#570,#571);
#511=AXIS2_PLACEMENT_3D('',#572,#573,#574);
#512=COLOUR_RGB('',0.800000011920929,0.800000011920929,0.800000011920929);
#513=COLOUR_RGB('',0.800000011920929,0.800000011920929,0.800000011920929);
#514=AXIS2_PLACEMENT_3D('',#575,#576,#577);
#515=COLOUR_RGB('',0.800000011920929,0.800000011920929,0.800000011920929);
#516=DIRECTION('',(1.0,4.24204618364242E-14,0.0));
#517=CARTESIAN_POINT('',(0.319999999999936,0.0,0.0));
#518=DIRECTION('',(1.0,4.24204618364242E-14,0.0));
#519=DIRECTION('',(-4.24204618364242E-14,1.0,0.0));
#520=DIRECTION('',(-1.0,-4.24204618364242E-14,-0.0));
#521=CARTESIAN_POINT('',(57.15,0.0,0.0));
#522=DIRECTION('',(1.0,4.24204618364242E-14,0.0));
#523=DIRECTION('',(-4.24204618364242E-14,1.0,0.0));
#524=DIRECTION('',(0.70710678118658,0.707106781186515,-8.65956056235416E-17));
#525=CARTESIAN_POINT('',(-1.13686837721616E-13,0.0,0.0));
#526=DIRECTION('',(1.0,4.24204618364242E-14,0.0));
#527=DIRECTION('',(-4.24204618364242E-14,1.0,0.0));
#528=DIRECTION('',(-0.70710678118664,0.707106781186455,-8.65956056235416E-17));
#529=CARTESIAN_POINT('',(0.319999999999936,0.0,0.0));
#530=DIRECTION('',(1.0,4.24204618364242E-14,0.0));
#531=DIRECTION('',(-4.24204618364242E-14,1.0,0.0));
#532=CARTESIAN_POINT('',(-1.13686837721616E-13,0.0,0.0));
#533=DIRECTION('',(1.0,4.24204618364242E-14,0.0));
#534=DIRECTION('',(-4.24204618364242E-14,1.0,0.0));
#535=CARTESIAN_POINT('',(57.15,0.0,0.0));
#536=DIRECTION('',(1.0,4.24204618364242E-14,0.0));
#537=DIRECTION('',(-4.24204618364242E-14,1.0,0.0));
#538=DIRECTION('',(0.70710678118655,-0.707106781186545,8.6595605623549E-17));
#539=CARTESIAN_POINT('',(57.15,0.0,0.0));
#540=DIRECTION('',(1.0,0.0,0.0));
#541=DIRECTION('',(0.0,1.0,0.0));
#542=DIRECTION('',(-0.70710678118655,-0.707106781186545,8.6595605623549E-17));
#543=CARTESIAN_POINT('',(59.9707106781187,0.0,0.0));
#544=DIRECTION('',(1.0,0.0,0.0));
#545=DIRECTION('',(0.0,1.0,0.0));
#546=CARTESIAN_POINT('',(59.9707106781187,0.0,0.0));
#547=DIRECTION('',(1.0,0.0,0.0));
#548=DIRECTION('',(0.0,1.0,0.0));
#549=DIRECTION('',(-0.0871557427476672,0.996194698091745,-1.21998664834562E-16));
#550=DIRECTION('',(0.0871557427476672,0.996194698091745,-1.21998664834562E-16));
#551=CARTESIAN_POINT('',(59.9996194698091,0.0,0.0));
#552=DIRECTION('',(1.0,0.0,0.0));
#553=DIRECTION('',(0.0,1.0,0.0));
#554=CARTESIAN_POINT('',(59.9996194698091,0.0,0.0));
#555=DIRECTION('',(1.0,0.0,0.0));
#556=DIRECTION('',(0.0,1.0,0.0));
#557=CARTESIAN_POINT('',(59.9,-1.32970488539838E-17,-0.108578643762771));
#558=DIRECTION('',(0.0,-1.0,1.22464679914735E-16));
#559=DIRECTION('',(0.0,-1.22464679914735E-16,-1.0));
#560=CARTESIAN_POINT('',(59.9707106781187,0.0,0.0));
#561=DIRECTION('',(1.0,0.0,0.0));
#562=DIRECTION('',(0.0,1.0,0.0));
#563=CARTESIAN_POINT('',(59.9,1.32970488539838E-17,0.108578643762771));
#564=DIRECTION('',(0.0,-1.0,1.22464679914735E-16));
#565=DIRECTION('',(0.0,1.22464679914735E-16,1.0));
#566=CARTESIAN_POINT('',(59.9996194698091,0.0,0.0));
#567=DIRECTION('',(1.0,0.0,0.0));
#568=DIRECTION('',(0.0,1.0,0.0));
#569=CARTESIAN_POINT('',(59.9996194698091,0.0,0.0));
#570=DIRECTION('',(1.0,0.0,0.0));
#571=DIRECTION('',(0.0,1.0,0.0));
#572=CARTESIAN_POINT('',(59.9707106781187,0.0,0.0));
#573=DIRECTION('',(1.0,0.0,0.0));
#574=DIRECTION('',(0.0,1.0,0.0));
#575=CARTESIAN_POINT('',(57.15,0.0,0.0));
#576=DIRECTION('',(1.0,0.0,0.0));
#577=DIRECTION('',(0.0,1.0,0.0));
ENDSEC;
END-ISO-10303-21;
