ISO-10303-21;
HEADER;
FILE_DESCRIPTION((''),'2;1');
FILE_NAME('607536820-000-00-E43','2021-03-22T13:44:17',('gantert'),(''),
'CREO PARAMETRIC BY PTC INC, 2019030','CREO PARAMETRIC BY PTC INC, 2019030','');
FILE_SCHEMA(('CONFIG_CONTROL_DESIGN'));
ENDSEC;
DATA;
#1=DIRECTION('',(0.E0,7.071067811865E-1,-7.071067811865E-1));
#2=VECTOR('',#1,2.121320343560E0);
#3=CARTESIAN_POINT('',(0.E0,0.E0,2.95E1));
#4=LINE('',#3,#2);
#5=DIRECTION('',(0.E0,-7.071067811865E-1,-7.071067811865E-1));
#6=VECTOR('',#5,2.121320343560E0);
#7=CARTESIAN_POINT('',(0.E0,0.E0,2.95E1));
#8=LINE('',#7,#6);
#9=CARTESIAN_POINT('',(0.E0,0.E0,0.E0));
#10=DIRECTION('',(0.E0,0.E0,-1.E0));
#11=DIRECTION('',(0.E0,-1.E0,0.E0));
#12=AXIS2_PLACEMENT_3D('',#9,#10,#11);
#14=DIRECTION('',(0.E0,0.E0,-1.E0));
#15=VECTOR('',#14,2.8E1);
#16=CARTESIAN_POINT('',(0.E0,1.5E0,2.8E1));
#17=LINE('',#16,#15);
#18=CARTESIAN_POINT('',(0.E0,0.E0,2.8E1));
#19=DIRECTION('',(0.E0,0.E0,1.E0));
#20=DIRECTION('',(0.E0,1.E0,0.E0));
#21=AXIS2_PLACEMENT_3D('',#18,#19,#20);
#23=DIRECTION('',(0.E0,0.E0,-1.E0));
#24=VECTOR('',#23,2.8E1);
#25=CARTESIAN_POINT('',(0.E0,-1.5E0,2.8E1));
#26=LINE('',#25,#24);
#27=DIRECTION('',(0.E0,-5.E-1,8.660254037844E-1));
#28=VECTOR('',#27,1.3E0);
#29=CARTESIAN_POINT('',(0.E0,-8.5E-1,-1.125833024920E0));
#30=LINE('',#29,#28);
#31=CARTESIAN_POINT('',(0.E0,0.E0,-1.125833024920E0));
#32=DIRECTION('',(0.E0,0.E0,1.E0));
#33=DIRECTION('',(0.E0,1.E0,0.E0));
#34=AXIS2_PLACEMENT_3D('',#31,#32,#33);
#36=DIRECTION('',(0.E0,5.E-1,8.660254037844E-1));
#37=VECTOR('',#36,1.3E0);
#38=CARTESIAN_POINT('',(0.E0,8.5E-1,-1.125833024920E0));
#39=LINE('',#38,#37);
#40=CARTESIAN_POINT('',(0.E0,0.E0,-1.125833024920E0));
#41=DIRECTION('',(0.E0,0.E0,-1.E0));
#42=DIRECTION('',(0.E0,1.E0,0.E0));
#43=AXIS2_PLACEMENT_3D('',#40,#41,#42);
#45=CARTESIAN_POINT('',(0.E0,0.E0,0.E0));
#46=DIRECTION('',(0.E0,0.E0,-1.E0));
#47=DIRECTION('',(0.E0,1.E0,0.E0));
#48=AXIS2_PLACEMENT_3D('',#45,#46,#47);
#50=CARTESIAN_POINT('',(0.E0,0.E0,2.8E1));
#51=DIRECTION('',(0.E0,0.E0,-1.E0));
#52=DIRECTION('',(0.E0,1.E0,0.E0));
#53=AXIS2_PLACEMENT_3D('',#50,#51,#52);
#55=CARTESIAN_POINT('',(0.E0,0.E0,-9.85E0));
#56=DIRECTION('',(0.E0,0.E0,-1.E0));
#57=DIRECTION('',(0.E0,1.E0,0.E0));
#58=AXIS2_PLACEMENT_3D('',#55,#56,#57);
#60=DIRECTION('',(0.E0,0.E0,1.E0));
#61=VECTOR('',#60,8.724166975080E0);
#62=CARTESIAN_POINT('',(0.E0,8.5E-1,-9.85E0));
#63=LINE('',#62,#61);
#64=DIRECTION('',(0.E0,0.E0,1.E0));
#65=VECTOR('',#64,8.724166975080E0);
#66=CARTESIAN_POINT('',(0.E0,-8.5E-1,-9.85E0));
#67=LINE('',#66,#65);
#68=CARTESIAN_POINT('',(0.E0,0.E0,-9.85E0));
#69=DIRECTION('',(0.E0,0.E0,1.E0));
#70=DIRECTION('',(0.E0,1.E0,0.E0));
#71=AXIS2_PLACEMENT_3D('',#68,#69,#70);
#73=DIRECTION('',(0.E0,-7.071067811866E-1,7.071067811865E-1));
#74=VECTOR('',#73,2.121320343560E-1);
#75=CARTESIAN_POINT('',(0.E0,1.E0,-1.E1));
#76=LINE('',#75,#74);
#77=DIRECTION('',(0.E0,7.071067811866E-1,7.071067811865E-1));
#78=VECTOR('',#77,2.121320343560E-1);
#79=CARTESIAN_POINT('',(0.E0,-1.E0,-1.E1));
#80=LINE('',#79,#78);
#81=CARTESIAN_POINT('',(0.E0,0.E0,-1.E1));
#82=DIRECTION('',(0.E0,0.E0,1.E0));
#83=DIRECTION('',(0.E0,1.E0,0.E0));
#84=AXIS2_PLACEMENT_3D('',#81,#82,#83);
#86=CARTESIAN_POINT('',(0.E0,0.E0,-1.E1));
#87=DIRECTION('',(0.E0,0.E0,-1.E0));
#88=DIRECTION('',(0.E0,1.E0,0.E0));
#89=AXIS2_PLACEMENT_3D('',#86,#87,#88);
#91=CARTESIAN_POINT('',(0.E0,0.E0,-2.149117618741E1));
#92=DIRECTION('',(0.E0,0.E0,-1.E0));
#93=DIRECTION('',(0.E0,1.E0,0.E0));
#94=AXIS2_PLACEMENT_3D('',#91,#92,#93);
#96=DIRECTION('',(0.E0,0.E0,1.E0));
#97=VECTOR('',#96,1.149117618741E1);
#98=CARTESIAN_POINT('',(0.E0,1.E0,-2.149117618741E1));
#99=LINE('',#98,#97);
#100=DIRECTION('',(0.E0,0.E0,1.E0));
#101=VECTOR('',#100,1.149117618741E1);
#102=CARTESIAN_POINT('',(0.E0,-1.E0,-2.149117618741E1));
#103=LINE('',#102,#101);
#104=CARTESIAN_POINT('',(0.E0,0.E0,-2.149117618741E1));
#105=DIRECTION('',(0.E0,0.E0,1.E0));
#106=DIRECTION('',(0.E0,1.E0,0.E0));
#107=AXIS2_PLACEMENT_3D('',#104,#105,#106);
#109=DIRECTION('',(0.E0,3.420201433257E-1,9.396926207859E-1));
#110=VECTOR('',#109,8.513422179807E-1);
#111=CARTESIAN_POINT('',(0.E0,7.088238125870E-1,-2.229117618741E1));
#112=LINE('',#111,#110);
#113=DIRECTION('',(0.E0,-3.420201433257E-1,9.396926207859E-1));
#114=VECTOR('',#113,8.513422179807E-1);
#115=CARTESIAN_POINT('',(0.E0,-7.088238125870E-1,-2.229117618741E1));
#116=LINE('',#115,#114);
#117=CARTESIAN_POINT('',(0.E0,0.E0,-2.229117618741E1));
#118=DIRECTION('',(0.E0,0.E0,1.E0));
#119=DIRECTION('',(0.E0,1.E0,0.E0));
#120=AXIS2_PLACEMENT_3D('',#117,#118,#119);
#122=CARTESIAN_POINT('',(0.E0,0.E0,-2.229117618741E1));
#123=DIRECTION('',(0.E0,0.E0,-1.E0));
#124=DIRECTION('',(0.E0,1.E0,0.E0));
#125=AXIS2_PLACEMENT_3D('',#122,#123,#124);
#127=DIRECTION('',(0.E0,7.071067811865E-1,7.071067811866E-1));
#128=VECTOR('',#127,1.002428249094E0);
#129=CARTESIAN_POINT('',(0.E0,0.E0,-2.3E1));
#130=LINE('',#129,#128);
#131=DIRECTION('',(0.E0,-7.071067811865E-1,7.071067811866E-1));
#132=VECTOR('',#131,1.002428249094E0);
#133=CARTESIAN_POINT('',(0.E0,0.E0,-2.3E1));
#134=LINE('',#133,#132);
#135=CARTESIAN_POINT('',(0.E0,0.E0,2.95E1));
#136=CARTESIAN_POINT('',(0.E0,1.5E0,2.8E1));
#137=VERTEX_POINT('',#135);
#138=VERTEX_POINT('',#136);
#139=CARTESIAN_POINT('',(0.E0,-1.5E0,2.8E1));
#140=VERTEX_POINT('',#139);
#141=CARTESIAN_POINT('',(0.E0,0.E0,-2.3E1));
#142=CARTESIAN_POINT('',(0.E0,7.088238125870E-1,-2.229117618741E1));
#143=VERTEX_POINT('',#141);
#144=VERTEX_POINT('',#142);
#145=CARTESIAN_POINT('',(0.E0,1.E0,-2.149117618741E1));
#146=VERTEX_POINT('',#145);
#147=CARTESIAN_POINT('',(0.E0,1.E0,-1.E1));
#148=VERTEX_POINT('',#147);
#149=CARTESIAN_POINT('',(0.E0,8.5E-1,-9.85E0));
#150=VERTEX_POINT('',#149);
#151=CARTESIAN_POINT('',(0.E0,8.5E-1,-1.125833024920E0));
#152=VERTEX_POINT('',#151);
#153=CARTESIAN_POINT('',(0.E0,-7.088238125870E-1,-2.229117618741E1));
#154=VERTEX_POINT('',#153);
#155=CARTESIAN_POINT('',(0.E0,-1.E0,-2.149117618741E1));
#156=VERTEX_POINT('',#155);
#157=CARTESIAN_POINT('',(0.E0,-1.E0,-1.E1));
#158=VERTEX_POINT('',#157);
#159=CARTESIAN_POINT('',(0.E0,-8.5E-1,-9.85E0));
#160=VERTEX_POINT('',#159);
#161=CARTESIAN_POINT('',(0.E0,-8.5E-1,-1.125833024920E0));
#162=VERTEX_POINT('',#161);
#163=CARTESIAN_POINT('',(0.E0,1.5E0,0.E0));
#164=CARTESIAN_POINT('',(0.E0,-1.5E0,0.E0));
#165=VERTEX_POINT('',#163);
#166=VERTEX_POINT('',#164);
#167=CARTESIAN_POINT('',(0.E0,0.E0,2.8735E1));
#168=DIRECTION('',(0.E0,0.E0,-1.E0));
#169=DIRECTION('',(0.E0,1.E0,0.E0));
#170=AXIS2_PLACEMENT_3D('',#167,#168,#169);
#171=CONICAL_SURFACE('',#170,7.65E-1,4.5E1);
#173=ORIENTED_EDGE('',*,*,#172,.T.);
#175=ORIENTED_EDGE('',*,*,#174,.T.);
#177=ORIENTED_EDGE('',*,*,#176,.F.);
#178=EDGE_LOOP('',(#173,#175,#177));
#179=FACE_OUTER_BOUND('',#178,.F.);
#180=ADVANCED_FACE('',(#179),#171,.T.);
#181=CARTESIAN_POINT('',(0.E0,0.E0,2.8735E1));
#182=DIRECTION('',(0.E0,0.E0,-1.E0));
#183=DIRECTION('',(0.E0,1.E0,0.E0));
#184=AXIS2_PLACEMENT_3D('',#181,#182,#183);
#185=CONICAL_SURFACE('',#184,7.65E-1,4.5E1);
#186=ORIENTED_EDGE('',*,*,#172,.F.);
#187=ORIENTED_EDGE('',*,*,#176,.T.);
#189=ORIENTED_EDGE('',*,*,#188,.F.);
#190=EDGE_LOOP('',(#186,#187,#189));
#191=FACE_OUTER_BOUND('',#190,.F.);
#192=ADVANCED_FACE('',(#191),#185,.T.);
#193=CARTESIAN_POINT('',(0.E0,0.E0,3.2125E1));
#194=DIRECTION('',(0.E0,0.E0,-1.E0));
#195=DIRECTION('',(0.E0,1.E0,0.E0));
#196=AXIS2_PLACEMENT_3D('',#193,#194,#195);
#197=CYLINDRICAL_SURFACE('',#196,1.5E0);
#199=ORIENTED_EDGE('',*,*,#198,.T.);
#201=ORIENTED_EDGE('',*,*,#200,.F.);
#202=ORIENTED_EDGE('',*,*,#188,.T.);
#204=ORIENTED_EDGE('',*,*,#203,.T.);
#205=EDGE_LOOP('',(#199,#201,#202,#204));
#206=FACE_OUTER_BOUND('',#205,.F.);
#207=ADVANCED_FACE('',(#206),#197,.T.);
#208=CARTESIAN_POINT('',(0.E0,0.E0,-5.629165124599E-1));
#209=DIRECTION('',(0.E0,0.E0,1.E0));
#210=DIRECTION('',(0.E0,-1.E0,0.E0));
#211=AXIS2_PLACEMENT_3D('',#208,#209,#210);
#212=CONICAL_SURFACE('',#211,1.175E0,3.E1);
#213=ORIENTED_EDGE('',*,*,#198,.F.);
#215=ORIENTED_EDGE('',*,*,#214,.F.);
#217=ORIENTED_EDGE('',*,*,#216,.F.);
#219=ORIENTED_EDGE('',*,*,#218,.T.);
#220=EDGE_LOOP('',(#213,#215,#217,#219));
#221=FACE_OUTER_BOUND('',#220,.F.);
#222=ADVANCED_FACE('',(#221),#212,.T.);
#223=CARTESIAN_POINT('',(0.E0,0.E0,-5.629165124599E-1));
#224=DIRECTION('',(0.E0,0.E0,1.E0));
#225=DIRECTION('',(0.E0,-1.E0,0.E0));
#226=AXIS2_PLACEMENT_3D('',#223,#224,#225);
#227=CONICAL_SURFACE('',#226,1.175E0,3.E1);
#229=ORIENTED_EDGE('',*,*,#228,.F.);
#230=ORIENTED_EDGE('',*,*,#218,.F.);
#232=ORIENTED_EDGE('',*,*,#231,.T.);
#233=ORIENTED_EDGE('',*,*,#214,.T.);
#234=EDGE_LOOP('',(#229,#230,#232,#233));
#235=FACE_OUTER_BOUND('',#234,.F.);
#236=ADVANCED_FACE('',(#235),#227,.T.);
#237=CARTESIAN_POINT('',(0.E0,0.E0,3.2125E1));
#238=DIRECTION('',(0.E0,0.E0,-1.E0));
#239=DIRECTION('',(0.E0,1.E0,0.E0));
#240=AXIS2_PLACEMENT_3D('',#237,#238,#239);
#241=CYLINDRICAL_SURFACE('',#240,1.5E0);
#242=ORIENTED_EDGE('',*,*,#228,.T.);
#243=ORIENTED_EDGE('',*,*,#203,.F.);
#244=ORIENTED_EDGE('',*,*,#174,.F.);
#245=ORIENTED_EDGE('',*,*,#200,.T.);
#246=EDGE_LOOP('',(#242,#243,#244,#245));
#247=FACE_OUTER_BOUND('',#246,.F.);
#248=ADVANCED_FACE('',(#247),#241,.T.);
#249=CARTESIAN_POINT('',(0.E0,0.E0,3.2125E1));
#250=DIRECTION('',(0.E0,0.E0,-1.E0));
#251=DIRECTION('',(0.E0,1.E0,0.E0));
#252=AXIS2_PLACEMENT_3D('',#249,#250,#251);
#253=CYLINDRICAL_SURFACE('',#252,8.5E-1);
#255=ORIENTED_EDGE('',*,*,#254,.F.);
#257=ORIENTED_EDGE('',*,*,#256,.T.);
#259=ORIENTED_EDGE('',*,*,#258,.T.);
#260=ORIENTED_EDGE('',*,*,#231,.F.);
#261=EDGE_LOOP('',(#255,#257,#259,#260));
#262=FACE_OUTER_BOUND('',#261,.F.);
#263=ADVANCED_FACE('',(#262),#253,.T.);
#264=CARTESIAN_POINT('',(0.E0,0.E0,3.2125E1));
#265=DIRECTION('',(0.E0,0.E0,-1.E0));
#266=DIRECTION('',(0.E0,1.E0,0.E0));
#267=AXIS2_PLACEMENT_3D('',#264,#265,#266);
#268=CYLINDRICAL_SURFACE('',#267,8.5E-1);
#269=ORIENTED_EDGE('',*,*,#254,.T.);
#270=ORIENTED_EDGE('',*,*,#216,.T.);
#271=ORIENTED_EDGE('',*,*,#258,.F.);
#273=ORIENTED_EDGE('',*,*,#272,.F.);
#274=EDGE_LOOP('',(#269,#270,#271,#273));
#275=FACE_OUTER_BOUND('',#274,.F.);
#276=ADVANCED_FACE('',(#275),#268,.T.);
#277=CARTESIAN_POINT('',(0.E0,0.E0,-9.925E0));
#278=DIRECTION('',(0.E0,0.E0,-1.E0));
#279=DIRECTION('',(0.E0,1.E0,0.E0));
#280=AXIS2_PLACEMENT_3D('',#277,#278,#279);
#281=CONICAL_SURFACE('',#280,9.25E-1,4.5E1);
#283=ORIENTED_EDGE('',*,*,#282,.T.);
#284=ORIENTED_EDGE('',*,*,#272,.T.);
#286=ORIENTED_EDGE('',*,*,#285,.F.);
#288=ORIENTED_EDGE('',*,*,#287,.F.);
#289=EDGE_LOOP('',(#283,#284,#286,#288));
#290=FACE_OUTER_BOUND('',#289,.F.);
#291=ADVANCED_FACE('',(#290),#281,.T.);
#292=CARTESIAN_POINT('',(0.E0,0.E0,-9.925E0));
#293=DIRECTION('',(0.E0,0.E0,-1.E0));
#294=DIRECTION('',(0.E0,1.E0,0.E0));
#295=AXIS2_PLACEMENT_3D('',#292,#293,#294);
#296=CONICAL_SURFACE('',#295,9.25E-1,4.5E1);
#297=ORIENTED_EDGE('',*,*,#282,.F.);
#299=ORIENTED_EDGE('',*,*,#298,.T.);
#300=ORIENTED_EDGE('',*,*,#285,.T.);
#301=ORIENTED_EDGE('',*,*,#256,.F.);
#302=EDGE_LOOP('',(#297,#299,#300,#301));
#303=FACE_OUTER_BOUND('',#302,.F.);
#304=ADVANCED_FACE('',(#303),#296,.T.);
#305=CARTESIAN_POINT('',(0.E0,0.E0,3.2125E1));
#306=DIRECTION('',(0.E0,0.E0,-1.E0));
#307=DIRECTION('',(0.E0,1.E0,0.E0));
#308=AXIS2_PLACEMENT_3D('',#305,#306,#307);
#309=CYLINDRICAL_SURFACE('',#308,1.E0);
#311=ORIENTED_EDGE('',*,*,#310,.F.);
#313=ORIENTED_EDGE('',*,*,#312,.T.);
#315=ORIENTED_EDGE('',*,*,#314,.T.);
#316=ORIENTED_EDGE('',*,*,#298,.F.);
#317=EDGE_LOOP('',(#311,#313,#315,#316));
#318=FACE_OUTER_BOUND('',#317,.F.);
#319=ADVANCED_FACE('',(#318),#309,.T.);
#320=CARTESIAN_POINT('',(0.E0,0.E0,3.2125E1));
#321=DIRECTION('',(0.E0,0.E0,-1.E0));
#322=DIRECTION('',(0.E0,1.E0,0.E0));
#323=AXIS2_PLACEMENT_3D('',#320,#321,#322);
#324=CYLINDRICAL_SURFACE('',#323,1.E0);
#325=ORIENTED_EDGE('',*,*,#310,.T.);
#326=ORIENTED_EDGE('',*,*,#287,.T.);
#327=ORIENTED_EDGE('',*,*,#314,.F.);
#329=ORIENTED_EDGE('',*,*,#328,.F.);
#330=EDGE_LOOP('',(#325,#326,#327,#329));
#331=FACE_OUTER_BOUND('',#330,.F.);
#332=ADVANCED_FACE('',(#331),#324,.T.);
#333=CARTESIAN_POINT('',(0.E0,0.E0,-2.189117618741E1));
#334=DIRECTION('',(0.E0,0.E0,1.E0));
#335=DIRECTION('',(0.E0,-1.E0,0.E0));
#336=AXIS2_PLACEMENT_3D('',#333,#334,#335);
#337=CONICAL_SURFACE('',#336,8.544119062935E-1,2.E1);
#339=ORIENTED_EDGE('',*,*,#338,.T.);
#340=ORIENTED_EDGE('',*,*,#328,.T.);
#342=ORIENTED_EDGE('',*,*,#341,.F.);
#344=ORIENTED_EDGE('',*,*,#343,.F.);
#345=EDGE_LOOP('',(#339,#340,#342,#344));
#346=FACE_OUTER_BOUND('',#345,.F.);
#347=ADVANCED_FACE('',(#346),#337,.T.);
#348=CARTESIAN_POINT('',(0.E0,0.E0,-2.189117618741E1));
#349=DIRECTION('',(0.E0,0.E0,1.E0));
#350=DIRECTION('',(0.E0,-1.E0,0.E0));
#351=AXIS2_PLACEMENT_3D('',#348,#349,#350);
#352=CONICAL_SURFACE('',#351,8.544119062935E-1,2.E1);
#353=ORIENTED_EDGE('',*,*,#338,.F.);
#355=ORIENTED_EDGE('',*,*,#354,.T.);
#356=ORIENTED_EDGE('',*,*,#341,.T.);
#357=ORIENTED_EDGE('',*,*,#312,.F.);
#358=EDGE_LOOP('',(#353,#355,#356,#357));
#359=FACE_OUTER_BOUND('',#358,.F.);
#360=ADVANCED_FACE('',(#359),#352,.T.);
#361=CARTESIAN_POINT('',(0.E0,0.E0,-2.263849985558E1));
#362=DIRECTION('',(0.E0,0.E0,1.E0));
#363=DIRECTION('',(0.E0,-1.E0,0.E0));
#364=AXIS2_PLACEMENT_3D('',#361,#362,#363);
#365=CONICAL_SURFACE('',#364,3.615001444194E-1,4.5E1);
#367=ORIENTED_EDGE('',*,*,#366,.F.);
#369=ORIENTED_EDGE('',*,*,#368,.T.);
#370=ORIENTED_EDGE('',*,*,#354,.F.);
#371=EDGE_LOOP('',(#367,#369,#370));
#372=FACE_OUTER_BOUND('',#371,.F.);
#373=ADVANCED_FACE('',(#372),#365,.T.);
#374=CARTESIAN_POINT('',(0.E0,0.E0,-2.263849985558E1));
#375=DIRECTION('',(0.E0,0.E0,1.E0));
#376=DIRECTION('',(0.E0,-1.E0,0.E0));
#377=AXIS2_PLACEMENT_3D('',#374,#375,#376);
#378=CONICAL_SURFACE('',#377,3.615001444194E-1,4.5E1);
#379=ORIENTED_EDGE('',*,*,#366,.T.);
#380=ORIENTED_EDGE('',*,*,#343,.T.);
#381=ORIENTED_EDGE('',*,*,#368,.F.);
#382=EDGE_LOOP('',(#379,#380,#381));
#383=FACE_OUTER_BOUND('',#382,.F.);
#384=ADVANCED_FACE('',(#383),#378,.T.);
#385=CLOSED_SHELL('',(#180,#192,#207,#222,#236,#248,#263,#276,#291,#304,#319,
#332,#347,#360,#373,#384));
#386=MANIFOLD_SOLID_BREP('',#385);
#387=DIRECTION('',(0.E0,0.E0,-1.E0));
#388=VECTOR('',#387,1.149117618741E1);
#389=CARTESIAN_POINT('',(0.E0,1.E0,-1.E1));
#390=LINE('',#389,#388);
#393=DIRECTION('',(0.E0,-3.420201433257E-1,-9.396926207859E-1));
#394=VECTOR('',#393,8.513422179807E-1);
#395=CARTESIAN_POINT('',(0.E0,1.E0,-2.149117618741E1));
#396=LINE('',#395,#394);
#401=CARTESIAN_POINT('',(0.E0,0.E0,-2.3E1));
#402=DIRECTION('',(0.E0,0.E0,1.E0));
#403=DIRECTION('',(1.E0,0.E0,0.E0));
#404=AXIS2_PLACEMENT_3D('CIP',#401,#402,#403);
#405=CARTESIAN_POINT('',(0.E0,0.E0,2.8E1));
#406=DIRECTION('',(0.E0,0.E0,1.E0));
#407=DIRECTION('',(1.E0,0.E0,0.E0));
#408=AXIS2_PLACEMENT_3D('PCS',#405,#406,#407);
#409=CARTESIAN_POINT('',(0.E0,0.E0,0.E0));
#410=DIRECTION('',(0.E0,0.E0,1.E0));
#411=DIRECTION('',(1.E0,0.E0,0.E0));
#412=AXIS2_PLACEMENT_3D('MCS',#409,#410,#411);
#414=DIMENSIONAL_EXPONENTS(0.E0,0.E0,0.E0,0.E0,0.E0,0.E0,0.E0);
#416=PLANE_ANGLE_MEASURE_WITH_UNIT(PLANE_ANGLE_MEASURE(1.745329251994E-2),#415);
#417=(CONVERSION_BASED_UNIT('DEGREE',#416)NAMED_UNIT(*)PLANE_ANGLE_UNIT());
#419=UNCERTAINTY_MEASURE_WITH_UNIT(LENGTH_MEASURE(1.E-3),#413,'closure',
'Maximum model space distance between geometric entities at asserted connectivities');
#420=(GEOMETRIC_REPRESENTATION_CONTEXT(3)GLOBAL_UNCERTAINTY_ASSIGNED_CONTEXT((
#419))GLOBAL_UNIT_ASSIGNED_CONTEXT((#413,#417,#418))REPRESENTATION_CONTEXT
('ID1','3'));
#400=GEOMETRIC_SET('',(#399));
#424=SHAPE_REPRESENTATION_RELATIONSHIP('','',#423,#421);
#425=SHAPE_REPRESENTATION_RELATIONSHIP('','',#423,#422);
#426=APPLICATION_CONTEXT(
'CONFIGURATION CONTROLLED 3D DESIGNS OF MECHANICAL PARTS AND ASSEMBLIES');
#427=APPLICATION_PROTOCOL_DEFINITION('international standard',
'config_control_design',1994,#426);
#428=DESIGN_CONTEXT('',#426,'design');
#429=MECHANICAL_CONTEXT('',#426,'mechanical');
#430=PRODUCT('607536820-000-00-E43','607536820-000-00-E43','NOT SPECIFIED',
(#429));
#431=PRODUCT_DEFINITION_FORMATION_WITH_SPECIFIED_SOURCE('1','LAST_VERSION',#430,
.MADE.);
#435=PRODUCT_CATEGORY('part','');
#436=PRODUCT_RELATED_PRODUCT_CATEGORY('detail','',(#430));
#437=PRODUCT_CATEGORY_RELATIONSHIP('','',#435,#436);
#438=SECURITY_CLASSIFICATION_LEVEL('unclassified');
#439=SECURITY_CLASSIFICATION('','',#438);
#440=CC_DESIGN_SECURITY_CLASSIFICATION(#439,(#431));
#441=APPROVAL_STATUS('approved');
#442=APPROVAL(#441,'');
#443=CC_DESIGN_APPROVAL(#442,(#439,#431,#432));
#444=CALENDAR_DATE(121,22,3);
#445=COORDINATED_UNIVERSAL_TIME_OFFSET(1,0,.AHEAD.);
#446=LOCAL_TIME(13,44,1.7E1,#445);
#447=DATE_AND_TIME(#444,#446);
#448=APPROVAL_DATE_TIME(#447,#442);
#449=DATE_TIME_ROLE('creation_date');
#450=CC_DESIGN_DATE_AND_TIME_ASSIGNMENT(#447,#449,(#432));
#451=DATE_TIME_ROLE('classification_date');
#452=CC_DESIGN_DATE_AND_TIME_ASSIGNMENT(#447,#451,(#439));
#453=PERSON('UNSPECIFIED','UNSPECIFIED',$,$,$,$);
#454=ORGANIZATION('UNSPECIFIED','UNSPECIFIED','UNSPECIFIED');
#455=PERSON_AND_ORGANIZATION(#453,#454);
#456=APPROVAL_ROLE('approver');
#457=APPROVAL_PERSON_ORGANIZATION(#455,#442,#456);
#458=PERSON_AND_ORGANIZATION_ROLE('creator');
#459=CC_DESIGN_PERSON_AND_ORGANIZATION_ASSIGNMENT(#455,#458,(#431,#432));
#460=PERSON_AND_ORGANIZATION_ROLE('design_supplier');
#461=CC_DESIGN_PERSON_AND_ORGANIZATION_ASSIGNMENT(#455,#460,(#431));
#462=PERSON_AND_ORGANIZATION_ROLE('classification_officer');
#463=CC_DESIGN_PERSON_AND_ORGANIZATION_ASSIGNMENT(#455,#462,(#439));
#464=PERSON_AND_ORGANIZATION_ROLE('design_owner');
#465=CC_DESIGN_PERSON_AND_ORGANIZATION_ASSIGNMENT(#455,#464,(#430));
#13=CIRCLE('',#12,1.5E0);
#22=CIRCLE('',#21,1.5E0);
#35=CIRCLE('',#34,8.5E-1);
#44=CIRCLE('',#43,8.5E-1);
#49=CIRCLE('',#48,1.5E0);
#54=CIRCLE('',#53,1.5E0);
#59=CIRCLE('',#58,8.5E-1);
#72=CIRCLE('',#71,8.5E-1);
#85=CIRCLE('',#84,1.E0);
#90=CIRCLE('',#89,1.E0);
#95=CIRCLE('',#94,1.E0);
#108=CIRCLE('',#107,1.E0);
#121=CIRCLE('',#120,7.088238125870E-1);
#126=CIRCLE('',#125,7.088238125870E-1);
#172=EDGE_CURVE('',#137,#138,#4,.T.);
#174=EDGE_CURVE('',#138,#140,#54,.T.);
#176=EDGE_CURVE('',#137,#140,#8,.T.);
#188=EDGE_CURVE('',#138,#140,#22,.T.);
#198=EDGE_CURVE('',#166,#165,#13,.T.);
#200=EDGE_CURVE('',#138,#165,#17,.T.);
#203=EDGE_CURVE('',#140,#166,#26,.T.);
#214=EDGE_CURVE('',#162,#166,#30,.T.);
#216=EDGE_CURVE('',#152,#162,#35,.T.);
#218=EDGE_CURVE('',#152,#165,#39,.T.);
#228=EDGE_CURVE('',#165,#166,#49,.T.);
#231=EDGE_CURVE('',#152,#162,#44,.T.);
#254=EDGE_CURVE('',#150,#152,#63,.T.);
#256=EDGE_CURVE('',#150,#160,#59,.T.);
#258=EDGE_CURVE('',#160,#162,#67,.T.);
#272=EDGE_CURVE('',#150,#160,#72,.T.);
#282=EDGE_CURVE('',#148,#150,#76,.T.);
#285=EDGE_CURVE('',#158,#160,#80,.T.);
#287=EDGE_CURVE('',#148,#158,#85,.T.);
#298=EDGE_CURVE('',#148,#158,#90,.T.);
#310=EDGE_CURVE('',#146,#148,#99,.T.);
#312=EDGE_CURVE('',#146,#156,#95,.T.);
#314=EDGE_CURVE('',#156,#158,#103,.T.);
#328=EDGE_CURVE('',#146,#156,#108,.T.);
#338=EDGE_CURVE('',#144,#146,#112,.T.);
#341=EDGE_CURVE('',#154,#156,#116,.T.);
#343=EDGE_CURVE('',#144,#154,#121,.T.);
#354=EDGE_CURVE('',#144,#154,#126,.T.);
#366=EDGE_CURVE('',#143,#144,#130,.T.);
#368=EDGE_CURVE('',#143,#154,#134,.T.);
#391=TRIMMED_CURVE('',#390,(PARAMETER_VALUE(0.E0)),(PARAMETER_VALUE(1.E0)),.T.,
.UNSPECIFIED.);
#392=COMPOSITE_CURVE_SEGMENT(.CONTINUOUS.,.T.,#391);
#397=TRIMMED_CURVE('',#396,(PARAMETER_VALUE(0.E0)),(PARAMETER_VALUE(1.E0)),.T.,
.UNSPECIFIED.);
#398=COMPOSITE_CURVE_SEGMENT(.CONTINUOUS.,.T.,#397);
#399=COMPOSITE_CURVE('',(#392,#398),.F.);
#413=(LENGTH_UNIT()NAMED_UNIT(*)SI_UNIT(.MILLI.,.METRE.));
#415=(NAMED_UNIT(*)PLANE_ANGLE_UNIT()SI_UNIT($,.RADIAN.));
#418=(NAMED_UNIT(*)SI_UNIT($,.STERADIAN.)SOLID_ANGLE_UNIT());
#421=ADVANCED_BREP_SHAPE_REPRESENTATION('',(#386),#420);
#422=GEOMETRICALLY_BOUNDED_SURFACE_SHAPE_REPRESENTATION('',(#400),#420);
#423=SHAPE_REPRESENTATION('',(#404,#408,#412),#420);
#432=PRODUCT_DEFINITION('design','',#431,#428);
#433=PRODUCT_DEFINITION_SHAPE('','SHAPE FOR 607536820-000-00-E43.',#432);
#434=SHAPE_DEFINITION_REPRESENTATION(#433,#423);
ENDSEC;
END-ISO-10303-21;
