ISO-10303-21;
HEADER;
FILE_DESCRIPTION(('STEP AP242'),'1');
FILE_NAME('607409282-000-01-E43.stp','2021-11-17T09:58:08',(' '),(' '),'Spatial InterOp 3D',' ',' ');
FILE_SCHEMA(('AP242_MANAGED_MODEL_BASED_3D_ENGINEERING_MIM_LF  {1 0 10303 442 1 1 4}'));
ENDSEC;
DATA;
#1=MECHANICAL_DESIGN_GEOMETRIC_PRESENTATION_REPRESENTATION(' ',(#12,#13,#14,#15,#16,#17,#18,#19,#20,#21,#22,#23,#24,#25,#26,#27,#28,#29),#8);
#2=PRODUCT_DEFINITION_CONTEXT('',#30,'design');
#3=APPLICATION_PROTOCOL_DEFINITION('INTERNATIONAL STANDARD','ap242_managed_model_based_3d_engineering',2014,#30);
#4=PRODUCT_CATEGORY_RELATIONSHIP('NONE','NONE',#31,#32);
#5=SHAPE_DEFINITION_REPRESENTATION(#33,#34);
#6=SHAPE_DEFINITION_REPRESENTATION(#33,#35);
#7=SHAPE_DEFINITION_REPRESENTATION(#33,#36);
#8= (GEOMETRIC_REPRESENTATION_CONTEXT(3)GLOBAL_UNCERTAINTY_ASSIGNED_CONTEXT((#39))GLOBAL_UNIT_ASSIGNED_CONTEXT((#41,#42,#43))REPRESENTATION_CONTEXT('NONE','WORKSPACE'));
#12=STYLED_ITEM('',(#45),#46);
#13=STYLED_ITEM('',(#47),#48);
#14=STYLED_ITEM('',(#49),#50);
#15=STYLED_ITEM('',(#51),#52);
#16=STYLED_ITEM('',(#53),#54);
#17=STYLED_ITEM('',(#55),#56);
#18=STYLED_ITEM('',(#57),#58);
#19=STYLED_ITEM('',(#59),#60);
#20=STYLED_ITEM('',(#61),#62);
#21=STYLED_ITEM('',(#63),#64);
#22=STYLED_ITEM('',(#65),#66);
#23=STYLED_ITEM('',(#67),#68);
#24=STYLED_ITEM('',(#69),#70);
#25=STYLED_ITEM('',(#71),#72);
#26=STYLED_ITEM('',(#73),#74);
#27=STYLED_ITEM('',(#75),#76);
#28=STYLED_ITEM('',(#77),#78);
#29=STYLED_ITEM('',(#79),#80);
#30=APPLICATION_CONTEXT('managed model based 3d engineering');
#31=PRODUCT_CATEGORY('part','NONE');
#32=PRODUCT_RELATED_PRODUCT_CATEGORY('detail',' ',(#81));
#33=PRODUCT_DEFINITION_SHAPE('NONE','NONE',#82);
#34=ADVANCED_BREP_SHAPE_REPRESENTATION('1',(#83,#84),#8);
#35=ADVANCED_BREP_SHAPE_REPRESENTATION('2',(#85,#86),#8);
#36=GEOMETRICALLY_BOUNDED_SURFACE_SHAPE_REPRESENTATION('3',(#87,#88),#8);
#39=UNCERTAINTY_MEASURE_WITH_UNIT(LENGTH_MEASURE(1.0E-06),#41,'','');
#41= (CONVERSION_BASED_UNIT('MILLIMETRE',#91)LENGTH_UNIT()NAMED_UNIT(#94));
#42= (NAMED_UNIT(#96)PLANE_ANGLE_UNIT()SI_UNIT($,.RADIAN.));
#43= (NAMED_UNIT(#96)SOLID_ANGLE_UNIT()SI_UNIT($,.STERADIAN.));
#45=PRESENTATION_STYLE_ASSIGNMENT((#102));
#46=COMPOSITE_CURVE('',(#103),.U.);
#47=PRESENTATION_STYLE_ASSIGNMENT((#104));
#48=COMPOSITE_CURVE('',(#105),.U.);
#49=PRESENTATION_STYLE_ASSIGNMENT((#106));
#50=ADVANCED_FACE('',(#107),#108,.T.);
#51=PRESENTATION_STYLE_ASSIGNMENT((#109));
#52=ADVANCED_FACE('',(#110),#111,.T.);
#53=PRESENTATION_STYLE_ASSIGNMENT((#112));
#54=ADVANCED_FACE('',(#113),#114,.T.);
#55=PRESENTATION_STYLE_ASSIGNMENT((#115));
#56=ADVANCED_FACE('',(#116),#117,.T.);
#57=PRESENTATION_STYLE_ASSIGNMENT((#118));
#58=ADVANCED_FACE('',(#119),#120,.T.);
#59=PRESENTATION_STYLE_ASSIGNMENT((#121));
#60=ADVANCED_FACE('',(#122),#123,.T.);
#61=PRESENTATION_STYLE_ASSIGNMENT((#124));
#62=ADVANCED_FACE('',(#125),#126,.T.);
#63=PRESENTATION_STYLE_ASSIGNMENT((#127));
#64=ADVANCED_FACE('',(#128),#129,.T.);
#65=PRESENTATION_STYLE_ASSIGNMENT((#130));
#66=ADVANCED_FACE('',(#131),#132,.T.);
#67=PRESENTATION_STYLE_ASSIGNMENT((#133));
#68=ADVANCED_FACE('',(#134),#135,.T.);
#69=PRESENTATION_STYLE_ASSIGNMENT((#136));
#70=ADVANCED_FACE('',(#137),#138,.T.);
#71=PRESENTATION_STYLE_ASSIGNMENT((#139));
#72=ADVANCED_FACE('',(#140),#141,.T.);
#73=PRESENTATION_STYLE_ASSIGNMENT((#142));
#74=ADVANCED_FACE('',(#143),#144,.T.);
#75=PRESENTATION_STYLE_ASSIGNMENT((#145));
#76=ADVANCED_FACE('',(#146),#147,.T.);
#77=PRESENTATION_STYLE_ASSIGNMENT((#148));
#78=ADVANCED_FACE('',(#149),#150,.T.);
#79=PRESENTATION_STYLE_ASSIGNMENT((#151));
#80=ADVANCED_FACE('',(#152),#153,.T.);
#81=PRODUCT('1','','PART--DESC',(#154));
#82=PRODUCT_DEFINITION('','NONE',#155,#2);
#83=MANIFOLD_SOLID_BREP('1',#156);
#84=AXIS2_PLACEMENT_3D('',#157,#158,#159);
#85=MANIFOLD_SOLID_BREP('2',#160);
#86=AXIS2_PLACEMENT_3D('',#161,#162,#163);
#87=GEOMETRIC_SET('3',(#46,#48));
#88=AXIS2_PLACEMENT_3D('',#164,#165,#166);
#91=LENGTH_MEASURE_WITH_UNIT(LENGTH_MEASURE(1.0),#167);
#94=DIMENSIONAL_EXPONENTS(1.0,0.0,0.0,0.0,0.0,0.0,0.0);
#96=DIMENSIONAL_EXPONENTS(0.0,0.0,0.0,0.0,0.0,0.0,0.0);
#102=CURVE_STYLE('',#168,POSITIVE_LENGTH_MEASURE(1.0E-06),#169);
#103=COMPOSITE_CURVE_SEGMENT(.CONTINUOUS.,.T.,#170);
#104=CURVE_STYLE('',#171,POSITIVE_LENGTH_MEASURE(1.0E-06),#172);
#105=COMPOSITE_CURVE_SEGMENT(.CONTINUOUS.,.T.,#173);
#106=SURFACE_STYLE_USAGE(.BOTH.,#174);
#107=FACE_OUTER_BOUND('',#175,.T.);
#108=TOROIDAL_SURFACE('',#176,2.0,1.0);
#109=SURFACE_STYLE_USAGE(.BOTH.,#177);
#110=FACE_OUTER_BOUND('',#178,.T.);
#111=CYLINDRICAL_SURFACE('',#179,3.0);
#112=SURFACE_STYLE_USAGE(.BOTH.,#180);
#113=FACE_OUTER_BOUND('',#181,.T.);
#114=PLANE('',#182);
#115=SURFACE_STYLE_USAGE(.BOTH.,#183);
#116=FACE_OUTER_BOUND('',#184,.T.);
#117=CYLINDRICAL_SURFACE('',#185,3.0);
#118=SURFACE_STYLE_USAGE(.BOTH.,#186);
#119=FACE_OUTER_BOUND('',#187,.T.);
#120=TOROIDAL_SURFACE('',#188,2.0,1.0);
#121=SURFACE_STYLE_USAGE(.BOTH.,#189);
#122=FACE_OUTER_BOUND('',#190,.T.);
#123=PLANE('',#191);
#124=SURFACE_STYLE_USAGE(.BOTH.,#192);
#125=FACE_OUTER_BOUND('',#193,.T.);
#126=CYLINDRICAL_SURFACE('',#194,2.95);
#127=SURFACE_STYLE_USAGE(.BOTH.,#195);
#128=FACE_OUTER_BOUND('',#196,.T.);
#129=CONICAL_SURFACE('',#197,2.975,0.209439510239322);
#130=SURFACE_STYLE_USAGE(.BOTH.,#198);
#131=FACE_OUTER_BOUND('',#199,.T.);
#132=CYLINDRICAL_SURFACE('',#200,3.0);
#133=SURFACE_STYLE_USAGE(.BOTH.,#201);
#134=FACE_OUTER_BOUND('',#202,.T.);
#135=CONICAL_SURFACE('',#203,2.75,0.785398163397448);
#136=SURFACE_STYLE_USAGE(.BOTH.,#204);
#137=FACE_OUTER_BOUND('',#205,.T.);
#138=PLANE('',#206);
#139=SURFACE_STYLE_USAGE(.BOTH.,#207);
#140=FACE_OUTER_BOUND('',#208,.T.);
#141=CONICAL_SURFACE('',#209,2.75,0.785398163397448);
#142=SURFACE_STYLE_USAGE(.BOTH.,#210);
#143=FACE_OUTER_BOUND('',#211,.T.);
#144=CYLINDRICAL_SURFACE('',#212,3.0);
#145=SURFACE_STYLE_USAGE(.BOTH.,#213);
#146=FACE_OUTER_BOUND('',#214,.T.);
#147=CONICAL_SURFACE('',#215,2.975,0.209439510239322);
#148=SURFACE_STYLE_USAGE(.BOTH.,#216);
#149=FACE_OUTER_BOUND('',#217,.T.);
#150=CYLINDRICAL_SURFACE('',#218,2.95);
#151=SURFACE_STYLE_USAGE(.BOTH.,#219);
#152=FACE_OUTER_BOUND('',#220,.T.);
#153=PLANE('',#221);
#154=PRODUCT_CONTEXT('',#30,'mechanical');
#155=PRODUCT_DEFINITION_FORMATION_WITH_SPECIFIED_SOURCE(' ','NONE',#81,.NOT_KNOWN.);
#156=CLOSED_SHELL('',(#50,#52,#54,#56,#58,#60));
#157=CARTESIAN_POINT('',(0.0,0.0,0.0));
#158=DIRECTION('',(0.0,0.0,1.0));
#159=DIRECTION('',(1.0,0.0,0.0));
#160=CLOSED_SHELL('',(#62,#64,#66,#68,#70,#72,#74,#76,#78,#80));
#161=CARTESIAN_POINT('',(0.0,0.0,0.0));
#162=DIRECTION('',(0.0,0.0,1.0));
#163=DIRECTION('',(1.0,0.0,0.0));
#164=CARTESIAN_POINT('',(0.0,0.0,0.0));
#165=DIRECTION('',(0.0,0.0,1.0));
#166=DIRECTION('',(1.0,0.0,0.0));
#167= (NAMED_UNIT(#94)LENGTH_UNIT()SI_UNIT(.MILLI.,.METRE.));
#168=DRAUGHTING_PRE_DEFINED_CURVE_FONT('continuous');
#169=COLOUR_RGB('',0.0,1.0,0.0);
#170=TRIMMED_CURVE('',#223,(PARAMETER_VALUE(0.0)),(PARAMETER_VALUE(3.0)),.T.,.UNSPECIFIED.);
#171=DRAUGHTING_PRE_DEFINED_CURVE_FONT('continuous');
#172=COLOUR_RGB('',0.0,1.0,0.0);
#173=TRIMMED_CURVE('',#224,(PARAMETER_VALUE(0.0)),(PARAMETER_VALUE(3.0)),.T.,.UNSPECIFIED.);
#174=SURFACE_SIDE_STYLE('',(#225));
#175=EDGE_LOOP('',(#226,#227,#228,#229,#230,#231));
#176=AXIS2_PLACEMENT_3D('',#232,#233,#234);
#177=SURFACE_SIDE_STYLE('',(#235));
#178=EDGE_LOOP('',(#236,#237,#238,#239,#240));
#179=AXIS2_PLACEMENT_3D('',#241,#242,#243);
#180=SURFACE_SIDE_STYLE('',(#244));
#181=EDGE_LOOP('',(#245,#246));
#182=AXIS2_PLACEMENT_3D('',#247,#248,#249);
#183=SURFACE_SIDE_STYLE('',(#250));
#184=EDGE_LOOP('',(#251,#252,#253,#254,#255));
#185=AXIS2_PLACEMENT_3D('',#256,#257,#258);
#186=SURFACE_SIDE_STYLE('',(#259));
#187=EDGE_LOOP('',(#260,#261,#262,#263,#264));
#188=AXIS2_PLACEMENT_3D('',#265,#266,#267);
#189=SURFACE_SIDE_STYLE('',(#268));
#190=EDGE_LOOP('',(#269,#270,#271));
#191=AXIS2_PLACEMENT_3D('',#272,#273,#274);
#192=SURFACE_SIDE_STYLE('',(#275));
#193=EDGE_LOOP('',(#276,#277,#278,#279));
#194=AXIS2_PLACEMENT_3D('',#280,#281,#282);
#195=SURFACE_SIDE_STYLE('',(#283));
#196=EDGE_LOOP('',(#284,#285,#286,#287));
#197=AXIS2_PLACEMENT_3D('',#288,#289,#290);
#198=SURFACE_SIDE_STYLE('',(#291));
#199=EDGE_LOOP('',(#292,#293,#294,#295));
#200=AXIS2_PLACEMENT_3D('',#296,#297,#298);
#201=SURFACE_SIDE_STYLE('',(#299));
#202=EDGE_LOOP('',(#300,#301,#302,#303));
#203=AXIS2_PLACEMENT_3D('',#304,#305,#306);
#204=SURFACE_SIDE_STYLE('',(#307));
#205=EDGE_LOOP('',(#308,#309));
#206=AXIS2_PLACEMENT_3D('',#310,#311,#312);
#207=SURFACE_SIDE_STYLE('',(#313));
#208=EDGE_LOOP('',(#314,#315,#316,#317));
#209=AXIS2_PLACEMENT_3D('',#318,#319,#320);
#210=SURFACE_SIDE_STYLE('',(#321));
#211=EDGE_LOOP('',(#322,#323,#324,#325));
#212=AXIS2_PLACEMENT_3D('',#326,#327,#328);
#213=SURFACE_SIDE_STYLE('',(#329));
#214=EDGE_LOOP('',(#330,#331,#332,#333));
#215=AXIS2_PLACEMENT_3D('',#334,#335,#336);
#216=SURFACE_SIDE_STYLE('',(#337));
#217=EDGE_LOOP('',(#338,#339,#340,#341));
#218=AXIS2_PLACEMENT_3D('',#342,#343,#344);
#219=SURFACE_SIDE_STYLE('',(#345));
#220=EDGE_LOOP('',(#346,#347));
#221=AXIS2_PLACEMENT_3D('',#348,#349,#350);
#223=LINE('',#351,#352);
#224=LINE('',#353,#354);
#225=SURFACE_STYLE_FILL_AREA(#355);
#226=ORIENTED_EDGE('',*,*,#356,.F.);
#227=ORIENTED_EDGE('',*,*,#357,.T.);
#228=ORIENTED_EDGE('',*,*,#358,.T.);
#229=ORIENTED_EDGE('',*,*,#359,.F.);
#230=ORIENTED_EDGE('',*,*,#360,.F.);
#231=ORIENTED_EDGE('',*,*,#361,.F.);
#232=CARTESIAN_POINT('',(1.17781823470185E-15,0.0,-19.2352315054739));
#233=DIRECTION('',(6.12323399573677E-17,0.0,-1.0));
#234=DIRECTION('',(-1.0,0.0,-6.12323399573677E-17));
#235=SURFACE_STYLE_FILL_AREA(#362);
#236=ORIENTED_EDGE('',*,*,#363,.F.);
#237=ORIENTED_EDGE('',*,*,#364,.T.);
#238=ORIENTED_EDGE('',*,*,#365,.F.);
#239=ORIENTED_EDGE('',*,*,#366,.F.);
#240=ORIENTED_EDGE('',*,*,#358,.F.);
#241=CARTESIAN_POINT('',(9.97182831827613E-16,0.0,-16.2852315054739));
#242=DIRECTION('',(6.12323399573676E-17,0.0,-1.0));
#243=DIRECTION('',(0.0,1.0,0.0));
#244=SURFACE_STYLE_FILL_AREA(#367);
#245=ORIENTED_EDGE('',*,*,#364,.F.);
#246=ORIENTED_EDGE('',*,*,#368,.F.);
#247=CARTESIAN_POINT('',(8.16547428953379E-16,1.5,-13.3352315054739));
#248=DIRECTION('',(-6.12323399573677E-17,0.0,1.0));
#249=DIRECTION('',(0.0,-1.0,0.0));
#250=SURFACE_STYLE_FILL_AREA(#369);
#251=ORIENTED_EDGE('',*,*,#363,.T.);
#252=ORIENTED_EDGE('',*,*,#357,.F.);
#253=ORIENTED_EDGE('',*,*,#370,.F.);
#254=ORIENTED_EDGE('',*,*,#365,.T.);
#255=ORIENTED_EDGE('',*,*,#368,.T.);
#256=CARTESIAN_POINT('',(9.97182831827613E-16,0.0,-16.2852315054739));
#257=DIRECTION('',(6.12323399573676E-17,0.0,-1.0));
#258=DIRECTION('',(0.0,1.0,0.0));
#259=SURFACE_STYLE_FILL_AREA(#371);
#260=ORIENTED_EDGE('',*,*,#356,.T.);
#261=ORIENTED_EDGE('',*,*,#372,.F.);
#262=ORIENTED_EDGE('',*,*,#359,.T.);
#263=ORIENTED_EDGE('',*,*,#366,.T.);
#264=ORIENTED_EDGE('',*,*,#370,.T.);
#265=CARTESIAN_POINT('',(1.17781823470185E-15,0.0,-19.2352315054739));
#266=DIRECTION('',(6.12323399573677E-17,0.0,-1.0));
#267=DIRECTION('',(-1.0,0.0,-6.12323399573677E-17));
#268=SURFACE_STYLE_FILL_AREA(#373);
#269=ORIENTED_EDGE('',*,*,#360,.T.);
#270=ORIENTED_EDGE('',*,*,#372,.T.);
#271=ORIENTED_EDGE('',*,*,#361,.T.);
#272=CARTESIAN_POINT('',(1.23905057465922E-15,1.0,-20.2352315054739));
#273=DIRECTION('',(6.12323399573677E-17,0.0,-1.0));
#274=DIRECTION('',(0.0,1.0,0.0));
#275=SURFACE_STYLE_FILL_AREA(#374);
#276=ORIENTED_EDGE('',*,*,#375,.F.);
#277=ORIENTED_EDGE('',*,*,#376,.T.);
#278=ORIENTED_EDGE('',*,*,#377,.F.);
#279=ORIENTED_EDGE('',*,*,#378,.F.);
#280=CARTESIAN_POINT('',(4.1547560223262E-16,0.0,-6.78523150547392));
#281=DIRECTION('',(6.12323399573677E-17,0.0,-1.0));
#282=DIRECTION('',(0.0,1.0,0.0));
#283=SURFACE_STYLE_FILL_AREA(#379);
#284=ORIENTED_EDGE('',*,*,#380,.F.);
#285=ORIENTED_EDGE('',*,*,#381,.T.);
#286=ORIENTED_EDGE('',*,*,#382,.F.);
#287=ORIENTED_EDGE('',*,*,#376,.F.);
#288=CARTESIAN_POINT('',(7.20188775593118E-18,0.0,-0.11761575273696));
#289=DIRECTION('',(-6.12323399573677E-17,-0.0,1.0));
#290=DIRECTION('',(0.0,1.0,0.0));
#291=SURFACE_STYLE_FILL_AREA(#383);
#292=ORIENTED_EDGE('',*,*,#384,.F.);
#293=ORIENTED_EDGE('',*,*,#385,.T.);
#294=ORIENTED_EDGE('',*,*,#386,.F.);
#295=ORIENTED_EDGE('',*,*,#381,.F.);
#296=CARTESIAN_POINT('',(-1.20213682640208E-15,0.0,19.632384247263));
#297=DIRECTION('',(6.12323399573676E-17,0.0,-1.0));
#298=DIRECTION('',(0.0,1.0,0.0));
#299=SURFACE_STYLE_FILL_AREA(#387);
#300=ORIENTED_EDGE('',*,*,#388,.F.);
#301=ORIENTED_EDGE('',*,*,#389,.T.);
#302=ORIENTED_EDGE('',*,*,#390,.F.);
#303=ORIENTED_EDGE('',*,*,#385,.F.);
#304=CARTESIAN_POINT('',(-2.4195817377935E-15,0.0,39.5147684945261));
#305=DIRECTION('',(6.12323399573677E-17,-0.0,-1.0));
#306=DIRECTION('',(0.0,1.0,0.0));
#307=SURFACE_STYLE_FILL_AREA(#391);
#308=ORIENTED_EDGE('',*,*,#389,.F.);
#309=ORIENTED_EDGE('',*,*,#392,.F.);
#310=CARTESIAN_POINT('',(-2.43488982278284E-15,1.25,39.7647684945261));
#311=DIRECTION('',(-6.12323399573677E-17,0.0,1.0));
#312=DIRECTION('',(0.0,-1.0,0.0));
#313=SURFACE_STYLE_FILL_AREA(#393);
#314=ORIENTED_EDGE('',*,*,#388,.T.);
#315=ORIENTED_EDGE('',*,*,#394,.F.);
#316=ORIENTED_EDGE('',*,*,#390,.T.);
#317=ORIENTED_EDGE('',*,*,#392,.T.);
#318=CARTESIAN_POINT('',(-2.4195817377935E-15,0.0,39.5147684945261));
#319=DIRECTION('',(6.12323399573677E-17,-0.0,-1.0));
#320=DIRECTION('',(0.0,1.0,0.0));
#321=SURFACE_STYLE_FILL_AREA(#395);
#322=ORIENTED_EDGE('',*,*,#384,.T.);
#323=ORIENTED_EDGE('',*,*,#396,.F.);
#324=ORIENTED_EDGE('',*,*,#386,.T.);
#325=ORIENTED_EDGE('',*,*,#394,.T.);
#326=CARTESIAN_POINT('',(-1.20213682640208E-15,0.0,19.632384247263));
#327=DIRECTION('',(6.12323399573676E-17,0.0,-1.0));
#328=DIRECTION('',(0.0,1.0,0.0));
#329=SURFACE_STYLE_FILL_AREA(#397);
#330=ORIENTED_EDGE('',*,*,#380,.T.);
#331=ORIENTED_EDGE('',*,*,#398,.F.);
#332=ORIENTED_EDGE('',*,*,#382,.T.);
#333=ORIENTED_EDGE('',*,*,#396,.T.);
#334=CARTESIAN_POINT('',(7.20188775593118E-18,0.0,-0.11761575273696));
#335=DIRECTION('',(-6.12323399573677E-17,-0.0,1.0));
#336=DIRECTION('',(0.0,1.0,0.0));
#337=SURFACE_STYLE_FILL_AREA(#399);
#338=ORIENTED_EDGE('',*,*,#375,.T.);
#339=ORIENTED_EDGE('',*,*,#400,.F.);
#340=ORIENTED_EDGE('',*,*,#377,.T.);
#341=ORIENTED_EDGE('',*,*,#398,.T.);
#342=CARTESIAN_POINT('',(4.1547560223262E-16,0.0,-6.78523150547392));
#343=DIRECTION('',(6.12323399573677E-17,0.0,-1.0));
#344=DIRECTION('',(0.0,1.0,0.0));
#345=SURFACE_STYLE_FILL_AREA(#401);
#346=ORIENTED_EDGE('',*,*,#378,.T.);
#347=ORIENTED_EDGE('',*,*,#400,.T.);
#348=CARTESIAN_POINT('',(8.16547428953379E-16,1.475,-13.3352315054739));
#349=DIRECTION('',(6.12323399573677E-17,0.0,-1.0));
#350=DIRECTION('',(0.0,1.0,0.0));
#351=CARTESIAN_POINT('',(0.0,3.0,0.0));
#352=VECTOR('',#402,1.0);
#353=CARTESIAN_POINT('',(0.0,-3.0,0.0));
#354=VECTOR('',#403,1.0);
#355=FILL_AREA_STYLE('',(#404));
#356=EDGE_CURVE('',#405,#406,#407,.T.);
#357=EDGE_CURVE('',#405,#408,#409,.T.);
#358=EDGE_CURVE('',#408,#410,#411,.T.);
#359=EDGE_CURVE('',#412,#410,#413,.T.);
#360=EDGE_CURVE('',#414,#412,#415,.T.);
#361=EDGE_CURVE('',#406,#414,#416,.T.);
#362=FILL_AREA_STYLE('',(#417));
#363=EDGE_CURVE('',#418,#408,#419,.T.);
#364=EDGE_CURVE('',#418,#420,#421,.T.);
#365=EDGE_CURVE('',#422,#420,#423,.T.);
#366=EDGE_CURVE('',#410,#422,#424,.T.);
#367=FILL_AREA_STYLE('',(#425));
#368=EDGE_CURVE('',#420,#418,#426,.T.);
#369=FILL_AREA_STYLE('',(#427));
#370=EDGE_CURVE('',#422,#405,#428,.T.);
#371=FILL_AREA_STYLE('',(#429));
#372=EDGE_CURVE('',#412,#406,#430,.T.);
#373=FILL_AREA_STYLE('',(#431));
#374=FILL_AREA_STYLE('',(#432));
#375=EDGE_CURVE('',#433,#434,#435,.T.);
#376=EDGE_CURVE('',#433,#436,#437,.T.);
#377=EDGE_CURVE('',#438,#436,#439,.T.);
#378=EDGE_CURVE('',#434,#438,#440,.T.);
#379=FILL_AREA_STYLE('',(#441));
#380=EDGE_CURVE('',#442,#433,#443,.T.);
#381=EDGE_CURVE('',#442,#444,#445,.T.);
#382=EDGE_CURVE('',#436,#444,#446,.T.);
#383=FILL_AREA_STYLE('',(#447));
#384=EDGE_CURVE('',#448,#442,#449,.T.);
#385=EDGE_CURVE('',#448,#450,#451,.T.);
#386=EDGE_CURVE('',#444,#450,#452,.T.);
#387=FILL_AREA_STYLE('',(#453));
#388=EDGE_CURVE('',#454,#448,#455,.T.);
#389=EDGE_CURVE('',#454,#456,#457,.T.);
#390=EDGE_CURVE('',#450,#456,#458,.T.);
#391=FILL_AREA_STYLE('',(#459));
#392=EDGE_CURVE('',#456,#454,#460,.T.);
#393=FILL_AREA_STYLE('',(#461));
#394=EDGE_CURVE('',#450,#448,#462,.T.);
#395=FILL_AREA_STYLE('',(#463));
#396=EDGE_CURVE('',#444,#442,#464,.T.);
#397=FILL_AREA_STYLE('',(#465));
#398=EDGE_CURVE('',#436,#433,#466,.T.);
#399=FILL_AREA_STYLE('',(#467));
#400=EDGE_CURVE('',#438,#434,#468,.T.);
#401=FILL_AREA_STYLE('',(#469));
#402=DIRECTION('',(0.0,-1.0,0.0));
#403=DIRECTION('',(0.0,1.0,0.0));
#404=FILL_AREA_STYLE_COLOUR('',#470);
#405=VERTEX_POINT('',#471);
#406=VERTEX_POINT('',#472);
#407=CIRCLE('',#473,1.0);
#408=VERTEX_POINT('',#474);
#409=CIRCLE('',#475,3.0);
#410=VERTEX_POINT('',#476);
#411=CIRCLE('',#477,3.0);
#412=VERTEX_POINT('',#478);
#413=CIRCLE('',#479,1.0);
#414=VERTEX_POINT('',#480);
#415=CIRCLE('',#481,2.0);
#416=CIRCLE('',#482,2.0);
#417=FILL_AREA_STYLE_COLOUR('',#483);
#418=VERTEX_POINT('',#484);
#419=LINE('',#485,#486);
#420=VERTEX_POINT('',#487);
#421=CIRCLE('',#488,3.0);
#422=VERTEX_POINT('',#489);
#423=LINE('',#490,#491);
#424=CIRCLE('',#492,3.0);
#425=FILL_AREA_STYLE_COLOUR('',#493);
#426=CIRCLE('',#494,3.0);
#427=FILL_AREA_STYLE_COLOUR('',#495);
#428=CIRCLE('',#496,3.0);
#429=FILL_AREA_STYLE_COLOUR('',#497);
#430=CIRCLE('',#498,2.0);
#431=FILL_AREA_STYLE_COLOUR('',#499);
#432=FILL_AREA_STYLE_COLOUR('',#500);
#433=VERTEX_POINT('',#501);
#434=VERTEX_POINT('',#502);
#435=LINE('',#503,#504);
#436=VERTEX_POINT('',#505);
#437=CIRCLE('',#506,2.95);
#438=VERTEX_POINT('',#507);
#439=LINE('',#508,#509);
#440=CIRCLE('',#510,2.95);
#441=FILL_AREA_STYLE_COLOUR('',#511);
#442=VERTEX_POINT('',#512);
#443=LINE('',#513,#514);
#444=VERTEX_POINT('',#515);
#445=CIRCLE('',#516,3.0);
#446=LINE('',#517,#518);
#447=FILL_AREA_STYLE_COLOUR('',#519);
#448=VERTEX_POINT('',#520);
#449=LINE('',#521,#522);
#450=VERTEX_POINT('',#523);
#451=CIRCLE('',#524,3.0);
#452=LINE('',#525,#526);
#453=FILL_AREA_STYLE_COLOUR('',#527);
#454=VERTEX_POINT('',#528);
#455=LINE('',#529,#530);
#456=VERTEX_POINT('',#531);
#457=CIRCLE('',#532,2.5);
#458=LINE('',#533,#534);
#459=FILL_AREA_STYLE_COLOUR('',#535);
#460=CIRCLE('',#536,2.5);
#461=FILL_AREA_STYLE_COLOUR('',#537);
#462=CIRCLE('',#538,3.0);
#463=FILL_AREA_STYLE_COLOUR('',#539);
#464=CIRCLE('',#540,3.0);
#465=FILL_AREA_STYLE_COLOUR('',#541);
#466=CIRCLE('',#542,2.95);
#467=FILL_AREA_STYLE_COLOUR('',#543);
#468=CIRCLE('',#544,2.95);
#469=FILL_AREA_STYLE_COLOUR('',#545);
#470=COLOUR_RGB('',0.800000011920929,0.800000011920929,0.800000011920929);
#471=CARTESIAN_POINT('',(-3.0,-3.67394039744206E-16,-19.2352315054739));
#472=CARTESIAN_POINT('',(-2.0,-2.44929359829471E-16,-20.2352315054739));
#473=AXIS2_PLACEMENT_3D('',#546,#547,#548);
#474=CARTESIAN_POINT('',(1.17781823470185E-15,3.0,-19.2352315054739));
#475=AXIS2_PLACEMENT_3D('',#549,#550,#551);
#476=CARTESIAN_POINT('',(3.0,3.67394039744206E-16,-19.2352315054739));
#477=AXIS2_PLACEMENT_3D('',#552,#553,#554);
#478=CARTESIAN_POINT('',(2.0,2.44929359829471E-16,-20.2352315054739));
#479=AXIS2_PLACEMENT_3D('',#555,#556,#557);
#480=CARTESIAN_POINT('',(1.23905057465922E-15,2.0,-20.2352315054739));
#481=AXIS2_PLACEMENT_3D('',#558,#559,#560);
#482=AXIS2_PLACEMENT_3D('',#561,#562,#563);
#483=COLOUR_RGB('',0.800000011920929,0.800000011920929,0.800000011920929);
#484=CARTESIAN_POINT('',(8.16547428953379E-16,3.0,-13.3352315054739));
#485=CARTESIAN_POINT('',(6.29788792083407E-16,3.0,-16.2852315054739));
#486=VECTOR('',#564,1.0);
#487=CARTESIAN_POINT('',(1.18394146869758E-15,-3.0,-13.3352315054739));
#488=AXIS2_PLACEMENT_3D('',#565,#566,#567);
#489=CARTESIAN_POINT('',(1.54521227444605E-15,-3.0,-19.2352315054739));
#490=CARTESIAN_POINT('',(1.36457687157182E-15,-3.0,-16.2852315054739));
#491=VECTOR('',#568,1.0);
#492=AXIS2_PLACEMENT_3D('',#569,#570,#571);
#493=COLOUR_RGB('',0.800000011920929,0.800000011920929,0.800000011920929);
#494=AXIS2_PLACEMENT_3D('',#572,#573,#574);
#495=COLOUR_RGB('',0.800000011920929,0.800000011920929,0.800000011920929);
#496=AXIS2_PLACEMENT_3D('',#575,#576,#577);
#497=COLOUR_RGB('',0.800000011920929,0.800000011920929,0.800000011920929);
#498=AXIS2_PLACEMENT_3D('',#578,#579,#580);
#499=COLOUR_RGB('',0.800000011920929,0.800000011920929,0.800000011920929);
#500=COLOUR_RGB('',0.498039215803146,0.498039215803146,0.498039215803146);
#501=CARTESIAN_POINT('',(1.44037755118624E-17,2.95,-0.235231505473919));
#502=CARTESIAN_POINT('',(8.16547428953379E-16,2.95,-13.3352315054739));
#503=CARTESIAN_POINT('',(5.4204796484151E-17,2.95,-6.78523150547392));
#504=VECTOR('',#581,1.0);
#505=CARTESIAN_POINT('',(3.75674581260332E-16,-2.95,-0.235231505473919));
#506=AXIS2_PLACEMENT_3D('',#582,#583,#584);
#507=CARTESIAN_POINT('',(1.17781823470185E-15,-2.95,-13.3352315054739));
#508=CARTESIAN_POINT('',(7.76746407981089E-16,-2.95,-6.78523150547392));
#509=VECTOR('',#585,1.0);
#510=AXIS2_PLACEMENT_3D('',#586,#587,#588);
#511=COLOUR_RGB('',0.498039215803146,0.498039215803146,0.498039215803146);
#512=CARTESIAN_POINT('',(0.0,3.0,0.0));
#513=CARTESIAN_POINT('',(-3.57130534990406E-16,2.975,-0.11761575273696));
#514=VECTOR('',#589,1.0);
#515=CARTESIAN_POINT('',(3.67394039744205E-16,-3.0,2.24963967399278E-32));
#516=AXIS2_PLACEMENT_3D('',#590,#591,#592);
#517=CARTESIAN_POINT('',(3.71534310502269E-16,-2.975,-0.11761575273696));
#518=VECTOR('',#593,1.0);
#519=COLOUR_RGB('',0.498039215803146,0.498039215803146,0.498039215803146);
#520=CARTESIAN_POINT('',(-2.40427365280416E-15,3.0,39.2647684945261));
#521=CARTESIAN_POINT('',(-1.56953086614629E-15,3.0,19.632384247263));
#522=VECTOR('',#594,1.0);
#523=CARTESIAN_POINT('',(-2.03687961305995E-15,-3.0,39.2647684945261));
#524=AXIS2_PLACEMENT_3D('',#595,#596,#597);
#525=CARTESIAN_POINT('',(-8.34742786657874E-16,-3.0,19.632384247263));
#526=VECTOR('',#598,1.0);
#527=COLOUR_RGB('',0.498039215803146,0.498039215803146,0.498039215803146);
#528=CARTESIAN_POINT('',(-2.43488982278284E-15,2.5,39.7647684945261));
#529=CARTESIAN_POINT('',(-2.75635960755902E-15,2.75,39.5147684945261));
#530=VECTOR('',#599,1.0);
#531=CARTESIAN_POINT('',(-2.12872812299601E-15,-2.5,39.7647684945261));
#532=AXIS2_PLACEMENT_3D('',#600,#601,#602);
#533=CARTESIAN_POINT('',(-2.08280386802798E-15,-2.75,39.5147684945261));
#534=VECTOR('',#603,1.0);
#535=COLOUR_RGB('',0.498039215803146,0.498039215803146,0.498039215803146);
#536=AXIS2_PLACEMENT_3D('',#604,#605,#606);
#537=COLOUR_RGB('',0.498039215803146,0.498039215803146,0.498039215803146);
#538=AXIS2_PLACEMENT_3D('',#607,#608,#609);
#539=COLOUR_RGB('',0.498039215803146,0.498039215803146,0.498039215803146);
#540=AXIS2_PLACEMENT_3D('',#610,#611,#612);
#541=COLOUR_RGB('',0.498039215803146,0.498039215803146,0.498039215803146);
#542=AXIS2_PLACEMENT_3D('',#613,#614,#615);
#543=COLOUR_RGB('',0.498039215803146,0.498039215803146,0.498039215803146);
#544=AXIS2_PLACEMENT_3D('',#616,#617,#618);
#545=COLOUR_RGB('',0.498039215803146,0.498039215803146,0.498039215803146);
#546=CARTESIAN_POINT('',(-2.0,-2.44929359829471E-16,-19.2352315054739));
#547=DIRECTION('',(1.22464679914735E-16,-1.0,7.49879891330929E-33));
#548=DIRECTION('',(-1.0,-1.22464679914735E-16,-6.12323399573677E-17));
#549=CARTESIAN_POINT('',(1.17781823470185E-15,0.0,-19.2352315054739));
#550=DIRECTION('',(6.12323399573676E-17,0.0,-1.0));
#551=DIRECTION('',(0.0,1.0,0.0));
#552=CARTESIAN_POINT('',(1.17781823470185E-15,0.0,-19.2352315054739));
#553=DIRECTION('',(6.12323399573676E-17,0.0,-1.0));
#554=DIRECTION('',(0.0,1.0,0.0));
#555=CARTESIAN_POINT('',(2.0,2.44929359829471E-16,-19.2352315054739));
#556=DIRECTION('',(1.22464679914735E-16,-1.0,7.49879891330929E-33));
#557=DIRECTION('',(1.0,1.22464679914735E-16,6.12323399573677E-17));
#558=CARTESIAN_POINT('',(1.23905057465922E-15,0.0,-20.2352315054739));
#559=DIRECTION('',(6.12323399573677E-17,0.0,-1.0));
#560=DIRECTION('',(0.0,1.0,0.0));
#561=CARTESIAN_POINT('',(1.23905057465922E-15,0.0,-20.2352315054739));
#562=DIRECTION('',(6.12323399573677E-17,0.0,-1.0));
#563=DIRECTION('',(0.0,1.0,0.0));
#564=DIRECTION('',(6.12323399573676E-17,0.0,-1.0));
#565=CARTESIAN_POINT('',(8.16547428953379E-16,0.0,-13.3352315054739));
#566=DIRECTION('',(6.12323399573676E-17,0.0,-1.0));
#567=DIRECTION('',(0.0,1.0,0.0));
#568=DIRECTION('',(-6.12323399573676E-17,-0.0,1.0));
#569=CARTESIAN_POINT('',(1.17781823470185E-15,0.0,-19.2352315054739));
#570=DIRECTION('',(6.12323399573676E-17,0.0,-1.0));
#571=DIRECTION('',(0.0,1.0,0.0));
#572=CARTESIAN_POINT('',(8.16547428953379E-16,0.0,-13.3352315054739));
#573=DIRECTION('',(6.12323399573676E-17,0.0,-1.0));
#574=DIRECTION('',(0.0,1.0,0.0));
#575=CARTESIAN_POINT('',(1.17781823470185E-15,0.0,-19.2352315054739));
#576=DIRECTION('',(6.12323399573676E-17,0.0,-1.0));
#577=DIRECTION('',(0.0,1.0,0.0));
#578=CARTESIAN_POINT('',(1.23905057465922E-15,0.0,-20.2352315054739));
#579=DIRECTION('',(6.12323399573677E-17,0.0,-1.0));
#580=DIRECTION('',(0.0,1.0,0.0));
#581=DIRECTION('',(6.12323399573677E-17,0.0,-1.0));
#582=CARTESIAN_POINT('',(1.44037755118624E-17,0.0,-0.235231505473919));
#583=DIRECTION('',(6.12323399573677E-17,0.0,-1.0));
#584=DIRECTION('',(0.0,1.0,0.0));
#585=DIRECTION('',(-6.12323399573677E-17,-0.0,1.0));
#586=CARTESIAN_POINT('',(8.16547428953379E-16,0.0,-13.3352315054739));
#587=DIRECTION('',(6.12323399573677E-17,0.0,-1.0));
#588=DIRECTION('',(0.0,1.0,0.0));
#589=DIRECTION('',(8.53561050831445E-17,-0.207911690817762,-0.978147600733805));
#590=CARTESIAN_POINT('',(0.0,0.0,0.0));
#591=DIRECTION('',(6.12323399573676E-17,0.0,-1.0));
#592=DIRECTION('',(0.0,1.0,0.0));
#593=DIRECTION('',(-3.44324277500873E-17,-0.207911690817762,0.978147600733805));
#594=DIRECTION('',(6.12323399573676E-17,0.0,-1.0));
#595=CARTESIAN_POINT('',(-2.40427365280416E-15,0.0,39.2647684945261));
#596=DIRECTION('',(6.12323399573676E-17,0.0,-1.0));
#597=DIRECTION('',(0.0,1.0,0.0));
#598=DIRECTION('',(-6.12323399573676E-17,-0.0,1.0));
#599=DIRECTION('',(-4.32978028117747E-17,0.707106781186548,-0.707106781186548));
#600=CARTESIAN_POINT('',(-2.43488982278284E-15,0.0,39.7647684945261));
#601=DIRECTION('',(6.12323399573677E-17,0.0,-1.0));
#602=DIRECTION('',(0.0,1.0,0.0));
#603=DIRECTION('',(-1.29893408435324E-16,0.707106781186548,0.707106781186548));
#604=CARTESIAN_POINT('',(-2.43488982278284E-15,0.0,39.7647684945261));
#605=DIRECTION('',(6.12323399573677E-17,0.0,-1.0));
#606=DIRECTION('',(0.0,1.0,0.0));
#607=CARTESIAN_POINT('',(-2.40427365280416E-15,0.0,39.2647684945261));
#608=DIRECTION('',(6.12323399573676E-17,0.0,-1.0));
#609=DIRECTION('',(0.0,1.0,0.0));
#610=CARTESIAN_POINT('',(0.0,0.0,0.0));
#611=DIRECTION('',(6.12323399573676E-17,0.0,-1.0));
#612=DIRECTION('',(0.0,1.0,0.0));
#613=CARTESIAN_POINT('',(1.44037755118624E-17,0.0,-0.235231505473919));
#614=DIRECTION('',(6.12323399573677E-17,0.0,-1.0));
#615=DIRECTION('',(0.0,1.0,0.0));
#616=CARTESIAN_POINT('',(8.16547428953379E-16,0.0,-13.3352315054739));
#617=DIRECTION('',(6.12323399573677E-17,0.0,-1.0));
#618=DIRECTION('',(0.0,1.0,0.0));
#619=DIRECTION('',(0.0,0.0,1.0));
#620=DIRECTION('',(1.0,0.0,0.0));
#621=CARTESIAN_POINT('',(0.0,0.0,39.764768));
#622=AXIS2_PLACEMENT_3D('PCS', #621,#619,#620);
#623=CARTESIAN_POINT('',(0.0,0.0,0.000000));
#624=AXIS2_PLACEMENT_3D('MCS', #623,#619,#620);
#625=CARTESIAN_POINT('',(0.0,0.0,-20.235232));
#626=AXIS2_PLACEMENT_3D('CIP', #625,#619,#620);
ENDSEC;
END-ISO-10303-21;
