ISO-10303-21;
HEADER;
FILE_DESCRIPTION(('STEP AP214'),'1');
FILE_NAME('eeeE43.stp','2023-12-22T10:15:33',(' '),(' '),'Spatial InterOp 3D',' ',' ');
FILE_SCHEMA(('AUTOMOTIVE_DESIGN { 1 0 10303 214 1 1 1 1 }'));
ENDSEC;
DATA;
#1=MECHANICAL_DESIGN_GEOMETRIC_PRESENTATION_REPRESENTATION(' ',(#12,#13,#14,#15,#16,#17,#18,#19,#20,#21,#22,#23,#24,#25,#26),#8);
#2=PRODUCT_DEFINITION_CONTEXT('',#27,'design');
#3=APPLICATION_PROTOCOL_DEFINITION('INTERNATIONAL STANDARD','automotive_design',1994,#27);
#4=PRODUCT_CATEGORY_RELATIONSHIP('NONE','NONE',#28,#29);
#5=SHAPE_DEFINITION_REPRESENTATION(#30,#31);
#6=SHAPE_DEFINITION_REPRESENTATION(#30,#32);
#7=SHAPE_DEFINITION_REPRESENTATION(#30,#33);
#8= (GEOMETRIC_REPRESENTATION_CONTEXT(3)GLOBAL_UNCERTAINTY_ASSIGNED_CONTEXT((#36))GLOBAL_UNIT_ASSIGNED_CONTEXT((#38,#39,#40))REPRESENTATION_CONTEXT('NONE','WORKSPACE'));
#12=STYLED_ITEM('',(#42),#43);
#13=STYLED_ITEM('',(#44),#45);
#14=STYLED_ITEM('',(#46),#47);
#15=STYLED_ITEM('',(#48),#49);
#16=STYLED_ITEM('',(#50),#51);
#17=STYLED_ITEM('',(#52),#53);
#18=STYLED_ITEM('',(#54),#55);
#19=STYLED_ITEM('',(#56),#57);
#20=STYLED_ITEM('',(#58),#59);
#21=STYLED_ITEM('',(#60),#61);
#22=STYLED_ITEM('',(#62),#63);
#23=STYLED_ITEM('',(#64),#65);
#24=STYLED_ITEM('',(#66),#67);
#25=STYLED_ITEM('',(#68),#69);
#26=STYLED_ITEM('',(#70),#71);
#27=APPLICATION_CONTEXT(' ');
#28=PRODUCT_CATEGORY('part','NONE');
#29=PRODUCT_RELATED_PRODUCT_CATEGORY('detail',' ',(#72));
#30=PRODUCT_DEFINITION_SHAPE('NONE','NONE',#73);
#31=ADVANCED_BREP_SHAPE_REPRESENTATION('1',(#74,#75),#8);
#32=ADVANCED_BREP_SHAPE_REPRESENTATION('2',(#76,#77),#8);
#33=GEOMETRICALLY_BOUNDED_SURFACE_SHAPE_REPRESENTATION('3',(#78,#79),#8);
#36=UNCERTAINTY_MEASURE_WITH_UNIT(LENGTH_MEASURE(1.0E-06),#38,'','');
#38= (CONVERSION_BASED_UNIT('MILLIMETRE',#82)LENGTH_UNIT()NAMED_UNIT(#85));
#39= (NAMED_UNIT(#87)PLANE_ANGLE_UNIT()SI_UNIT($,.RADIAN.));
#40= (NAMED_UNIT(#87)SOLID_ANGLE_UNIT()SI_UNIT($,.STERADIAN.));
#42=PRESENTATION_STYLE_ASSIGNMENT((#93));
#43=COMPOSITE_CURVE('',(#94),.U.);
#44=PRESENTATION_STYLE_ASSIGNMENT((#95));
#45=COMPOSITE_CURVE('',(#96,#97,#98,#99,#100,#101),.U.);
#46=PRESENTATION_STYLE_ASSIGNMENT((#102));
#47=ADVANCED_FACE('',(#103),#104,.T.);
#48=PRESENTATION_STYLE_ASSIGNMENT((#105));
#49=ADVANCED_FACE('',(#106),#107,.T.);
#50=PRESENTATION_STYLE_ASSIGNMENT((#108));
#51=ADVANCED_FACE('',(#109),#110,.T.);
#52=PRESENTATION_STYLE_ASSIGNMENT((#111));
#53=ADVANCED_FACE('',(#112),#113,.T.);
#54=PRESENTATION_STYLE_ASSIGNMENT((#114));
#55=ADVANCED_FACE('',(#115),#116,.T.);
#56=PRESENTATION_STYLE_ASSIGNMENT((#117));
#57=ADVANCED_FACE('',(#118),#119,.T.);
#58=PRESENTATION_STYLE_ASSIGNMENT((#120));
#59=COMPOSITE_CURVE('',(#121,#122,#123,#124,#125),.U.);
#60=PRESENTATION_STYLE_ASSIGNMENT((#126));
#61=ADVANCED_FACE('',(#127),#128,.T.);
#62=PRESENTATION_STYLE_ASSIGNMENT((#129));
#63=ADVANCED_FACE('',(#130),#131,.T.);
#64=PRESENTATION_STYLE_ASSIGNMENT((#132));
#65=ADVANCED_FACE('',(#133),#134,.T.);
#66=PRESENTATION_STYLE_ASSIGNMENT((#135));
#67=ADVANCED_FACE('',(#136),#137,.T.);
#68=PRESENTATION_STYLE_ASSIGNMENT((#138));
#69=ADVANCED_FACE('',(#139),#140,.T.);
#70=PRESENTATION_STYLE_ASSIGNMENT((#141));
#71=ADVANCED_FACE('',(#142),#143,.T.);
#72=PRODUCT('1','','PART--DESC',(#144));
#73=PRODUCT_DEFINITION('','NONE',#145,#2);
#74=MANIFOLD_SOLID_BREP('1',#146);
#75=AXIS2_PLACEMENT_3D('',#147,#148,#149);
#76=MANIFOLD_SOLID_BREP('2',#150);
#77=AXIS2_PLACEMENT_3D('',#151,#152,#153);
#78=GEOMETRIC_SET('3',(#43,#45,#59));
#79=AXIS2_PLACEMENT_3D('',#154,#155,#156);
#82=LENGTH_MEASURE_WITH_UNIT(LENGTH_MEASURE(1.0),#157);
#85=DIMENSIONAL_EXPONENTS(1.0,0.0,0.0,0.0,0.0,0.0,0.0);
#87=DIMENSIONAL_EXPONENTS(0.0,0.0,0.0,0.0,0.0,0.0,0.0);
#93=CURVE_STYLE('',#158,POSITIVE_LENGTH_MEASURE(1.0E-06),#159);
#94=COMPOSITE_CURVE_SEGMENT(.CONTINUOUS.,.T.,#160);
#95=CURVE_STYLE('',#161,POSITIVE_LENGTH_MEASURE(1.0E-06),#162);
#96=COMPOSITE_CURVE_SEGMENT(.CONTINUOUS.,.T.,#163);
#97=COMPOSITE_CURVE_SEGMENT(.CONTINUOUS.,.T.,#164);
#98=COMPOSITE_CURVE_SEGMENT(.CONTINUOUS.,.T.,#165);
#99=COMPOSITE_CURVE_SEGMENT(.CONTINUOUS.,.T.,#166);
#100=COMPOSITE_CURVE_SEGMENT(.CONTINUOUS.,.T.,#167);
#101=COMPOSITE_CURVE_SEGMENT(.CONTINUOUS.,.T.,#168);
#102=SURFACE_STYLE_USAGE(.BOTH.,#169);
#103=FACE_OUTER_BOUND('',#170,.T.);
#104=CYLINDRICAL_SURFACE('',#171,5.00000000000037);
#105=SURFACE_STYLE_USAGE(.BOTH.,#172);
#106=FACE_OUTER_BOUND('',#173,.T.);
#107=CONICAL_SURFACE('',#174,4.50000000000045,0.785398163397448);
#108=SURFACE_STYLE_USAGE(.BOTH.,#175);
#109=FACE_OUTER_BOUND('',#176,.T.);
#110=PLANE('',#177);
#111=SURFACE_STYLE_USAGE(.BOTH.,#178);
#112=FACE_OUTER_BOUND('',#179,.T.);
#113=PLANE('',#180);
#114=SURFACE_STYLE_USAGE(.BOTH.,#181);
#115=FACE_OUTER_BOUND('',#182,.T.);
#116=CONICAL_SURFACE('',#183,4.50000000000045,0.785398163397448);
#117=SURFACE_STYLE_USAGE(.BOTH.,#184);
#118=FACE_OUTER_BOUND('',#185,.T.);
#119=CYLINDRICAL_SURFACE('',#186,5.00000000000037);
#120=CURVE_STYLE('',#187,POSITIVE_LENGTH_MEASURE(1.0E-06),#188);
#121=COMPOSITE_CURVE_SEGMENT(.CONTINUOUS.,.T.,#189);
#122=COMPOSITE_CURVE_SEGMENT(.CONTINUOUS.,.T.,#190);
#123=COMPOSITE_CURVE_SEGMENT(.CONTINUOUS.,.T.,#191);
#124=COMPOSITE_CURVE_SEGMENT(.CONTINUOUS.,.T.,#192);
#125=COMPOSITE_CURVE_SEGMENT(.CONTINUOUS.,.T.,#193);
#126=SURFACE_STYLE_USAGE(.BOTH.,#194);
#127=FACE_OUTER_BOUND('',#195,.T.);
#128=CONICAL_SURFACE('',#196,4.7500000000004,0.785398163397221);
#129=SURFACE_STYLE_USAGE(.BOTH.,#197);
#130=FACE_OUTER_BOUND('',#198,.T.);
#131=CYLINDRICAL_SURFACE('',#199,5.00000000000028);
#132=SURFACE_STYLE_USAGE(.BOTH.,#200);
#133=FACE_OUTER_BOUND('',#201,.T.);
#134=PLANE('',#202);
#135=SURFACE_STYLE_USAGE(.BOTH.,#203);
#136=FACE_OUTER_BOUND('',#204,.T.);
#137=CYLINDRICAL_SURFACE('',#205,5.00000000000028);
#138=SURFACE_STYLE_USAGE(.BOTH.,#206);
#139=FACE_OUTER_BOUND('',#207,.T.);
#140=CONICAL_SURFACE('',#208,4.7500000000004,0.785398163397221);
#141=SURFACE_STYLE_USAGE(.BOTH.,#209);
#142=FACE_OUTER_BOUND('',#210,.T.);
#143=PLANE('',#211);
#144=PRODUCT_CONTEXT('',#27,'mechanical');
#145=PRODUCT_DEFINITION_FORMATION_WITH_SPECIFIED_SOURCE(' ','NONE',#72,.NOT_KNOWN.);
#146=CLOSED_SHELL('',(#47,#49,#51,#53,#55,#57));
#147=CARTESIAN_POINT('',(0.0,0.0,0.0));
#148=DIRECTION('',(0.0,0.0,1.0));
#149=DIRECTION('',(1.0,0.0,0.0));
#150=CLOSED_SHELL('',(#61,#63,#65,#67,#69,#71));
#151=CARTESIAN_POINT('',(0.0,0.0,0.0));
#152=DIRECTION('',(0.0,0.0,1.0));
#153=DIRECTION('',(1.0,0.0,0.0));
#154=CARTESIAN_POINT('',(0.0,0.0,0.0));
#155=DIRECTION('',(0.0,0.0,1.0));
#156=DIRECTION('',(1.0,0.0,0.0));
#157= (NAMED_UNIT(#85)LENGTH_UNIT()SI_UNIT(.MILLI.,.METRE.));
#158=DRAUGHTING_PRE_DEFINED_CURVE_FONT('continuous');
#159=COLOUR_RGB('',0.0,1.0,0.0);
#160=TRIMMED_CURVE('',#213,(PARAMETER_VALUE(0.0)),(PARAMETER_VALUE(5.00000000000028)),.T.,.UNSPECIFIED.);
#161=DRAUGHTING_PRE_DEFINED_CURVE_FONT('continuous');
#162=COLOUR_RGB('',0.498039215803146,0.498039215803146,0.498039215803146);
#163=TRIMMED_CURVE('',#214,(PARAMETER_VALUE(0.0)),(PARAMETER_VALUE(38.9999999999998)),.T.,.UNSPECIFIED.);
#164=TRIMMED_CURVE('',#215,(PARAMETER_VALUE(0.0)),(PARAMETER_VALUE(1.41421356237309)),.T.,.UNSPECIFIED.);
#165=TRIMMED_CURVE('',#216,(PARAMETER_VALUE(0.0)),(PARAMETER_VALUE(4.00000000000045)),.T.,.UNSPECIFIED.);
#166=TRIMMED_CURVE('',#217,(PARAMETER_VALUE(0.0)),(PARAMETER_VALUE(49.0)),.T.,.UNSPECIFIED.);
#167=TRIMMED_CURVE('',#218,(PARAMETER_VALUE(0.0)),(PARAMETER_VALUE(5.00000000000028)),.T.,.UNSPECIFIED.);
#168=TRIMMED_CURVE('',#219,(PARAMETER_VALUE(0.0)),(PARAMETER_VALUE(8.99999999999991)),.T.,.UNSPECIFIED.);
#169=SURFACE_SIDE_STYLE('',(#220));
#170=EDGE_LOOP('',(#221,#222,#223,#224));
#171=AXIS2_PLACEMENT_3D('',#225,#226,#227);
#172=SURFACE_SIDE_STYLE('',(#228));
#173=EDGE_LOOP('',(#229,#230,#231,#232));
#174=AXIS2_PLACEMENT_3D('',#233,#234,#235);
#175=SURFACE_SIDE_STYLE('',(#236));
#176=EDGE_LOOP('',(#237,#238));
#177=AXIS2_PLACEMENT_3D('',#239,#240,#241);
#178=SURFACE_SIDE_STYLE('',(#242));
#179=EDGE_LOOP('',(#243,#244));
#180=AXIS2_PLACEMENT_3D('',#245,#246,#247);
#181=SURFACE_SIDE_STYLE('',(#248));
#182=EDGE_LOOP('',(#249,#250,#251,#252));
#183=AXIS2_PLACEMENT_3D('',#253,#254,#255);
#184=SURFACE_SIDE_STYLE('',(#256));
#185=EDGE_LOOP('',(#257,#258,#259,#260));
#186=AXIS2_PLACEMENT_3D('',#261,#262,#263);
#187=DRAUGHTING_PRE_DEFINED_CURVE_FONT('continuous');
#188=COLOUR_RGB('',0.0,0.0,1.0);
#189=TRIMMED_CURVE('',#264,(PARAMETER_VALUE(0.0)),(PARAMETER_VALUE(4.50000000000051)),.T.,.UNSPECIFIED.);
#190=TRIMMED_CURVE('',#265,(PARAMETER_VALUE(0.0)),(PARAMETER_VALUE(0.707106781186387)),.T.,.UNSPECIFIED.);
#191=TRIMMED_CURVE('',#266,(PARAMETER_VALUE(0.0)),(PARAMETER_VALUE(39.5)),.T.,.UNSPECIFIED.);
#192=TRIMMED_CURVE('',#267,(PARAMETER_VALUE(0.0)),(PARAMETER_VALUE(5.00000000000028)),.T.,.UNSPECIFIED.);
#193=TRIMMED_CURVE('',#268,(PARAMETER_VALUE(0.0)),(PARAMETER_VALUE(40.0)),.T.,.UNSPECIFIED.);
#194=SURFACE_SIDE_STYLE('',(#269));
#195=EDGE_LOOP('',(#270,#271,#272,#273));
#196=AXIS2_PLACEMENT_3D('',#274,#275,#276);
#197=SURFACE_SIDE_STYLE('',(#277));
#198=EDGE_LOOP('',(#278,#279,#280,#281));
#199=AXIS2_PLACEMENT_3D('',#282,#283,#284);
#200=SURFACE_SIDE_STYLE('',(#285));
#201=EDGE_LOOP('',(#286,#287));
#202=AXIS2_PLACEMENT_3D('',#288,#289,#290);
#203=SURFACE_SIDE_STYLE('',(#291));
#204=EDGE_LOOP('',(#292,#293,#294,#295));
#205=AXIS2_PLACEMENT_3D('',#296,#297,#298);
#206=SURFACE_SIDE_STYLE('',(#299));
#207=EDGE_LOOP('',(#300,#301,#302,#303));
#208=AXIS2_PLACEMENT_3D('',#304,#305,#306);
#209=SURFACE_SIDE_STYLE('',(#307));
#210=EDGE_LOOP('',(#308,#309));
#211=AXIS2_PLACEMENT_3D('',#310,#311,#312);
#213=LINE('',#313,#314);
#214=LINE('',#315,#316);
#215=LINE('',#317,#318);
#216=LINE('',#319,#320);
#217=LINE('',#321,#322);
#218=LINE('',#323,#324);
#219=LINE('',#325,#326);
#220=SURFACE_STYLE_FILL_AREA(#327);
#221=ORIENTED_EDGE('',*,*,#328,.F.);
#222=ORIENTED_EDGE('',*,*,#329,.T.);
#223=ORIENTED_EDGE('',*,*,#330,.F.);
#224=ORIENTED_EDGE('',*,*,#331,.F.);
#225=CARTESIAN_POINT('',(-9.18485099360512E-16,-2.27373675443232E-13,15.0));
#226=DIRECTION('',(6.12323399573677E-17,0.0,-1.0));
#227=DIRECTION('',(0.0,1.0,0.0));
#228=SURFACE_STYLE_FILL_AREA(#332);
#229=ORIENTED_EDGE('',*,*,#333,.F.);
#230=ORIENTED_EDGE('',*,*,#334,.T.);
#231=ORIENTED_EDGE('',*,*,#335,.F.);
#232=ORIENTED_EDGE('',*,*,#329,.F.);
#233=CARTESIAN_POINT('',(-2.41867742831601E-15,-2.27373675443232E-13,39.4999999999998));
#234=DIRECTION('',(6.12323399573677E-17,-0.0,-1.0));
#235=DIRECTION('',(0.0,1.0,0.0));
#236=SURFACE_STYLE_FILL_AREA(#336);
#237=ORIENTED_EDGE('',*,*,#331,.T.);
#238=ORIENTED_EDGE('',*,*,#337,.T.);
#239=CARTESIAN_POINT('',(5.51091059616302E-16,2.49999999999991,-8.99999999999989));
#240=DIRECTION('',(6.12323399573677E-17,0.0,-1.0));
#241=DIRECTION('',(0.0,1.0,0.0));
#242=SURFACE_STYLE_FILL_AREA(#338);
#243=ORIENTED_EDGE('',*,*,#334,.F.);
#244=ORIENTED_EDGE('',*,*,#339,.F.);
#245=CARTESIAN_POINT('',(-2.4492935982947E-15,2.0,40.0));
#246=DIRECTION('',(-6.12323399573677E-17,8.52651282912023E-14,1.0));
#247=DIRECTION('',(-5.22098332203547E-30,-1.0,8.52651282912023E-14));
#248=SURFACE_STYLE_FILL_AREA(#340);
#249=ORIENTED_EDGE('',*,*,#333,.T.);
#250=ORIENTED_EDGE('',*,*,#341,.F.);
#251=ORIENTED_EDGE('',*,*,#335,.T.);
#252=ORIENTED_EDGE('',*,*,#339,.T.);
#253=CARTESIAN_POINT('',(-2.41867742831601E-15,-2.27373675443232E-13,39.4999999999998));
#254=DIRECTION('',(6.12323399573677E-17,-0.0,-1.0));
#255=DIRECTION('',(0.0,1.0,0.0));
#256=SURFACE_STYLE_FILL_AREA(#342);
#257=ORIENTED_EDGE('',*,*,#328,.T.);
#258=ORIENTED_EDGE('',*,*,#337,.F.);
#259=ORIENTED_EDGE('',*,*,#330,.T.);
#260=ORIENTED_EDGE('',*,*,#341,.T.);
#261=CARTESIAN_POINT('',(-9.18485099360512E-16,-2.27373675443232E-13,15.0));
#262=DIRECTION('',(6.12323399573677E-17,0.0,-1.0));
#263=DIRECTION('',(0.0,1.0,0.0));
#264=LINE('',#343,#344);
#265=LINE('',#345,#346);
#266=LINE('',#347,#348);
#267=LINE('',#349,#350);
#268=LINE('',#351,#352);
#269=SURFACE_STYLE_FILL_AREA(#353);
#270=ORIENTED_EDGE('',*,*,#354,.F.);
#271=ORIENTED_EDGE('',*,*,#355,.T.);
#272=ORIENTED_EDGE('',*,*,#356,.F.);
#273=ORIENTED_EDGE('',*,*,#357,.F.);
#274=CARTESIAN_POINT('',(2.98507657292167E-15,-2.27373675443232E-13,-48.7499999999999));
#275=DIRECTION('',(-6.12323399573677E-17,-0.0,1.0));
#276=DIRECTION('',(0.0,1.0,0.0));
#277=SURFACE_STYLE_FILL_AREA(#358);
#278=ORIENTED_EDGE('',*,*,#359,.F.);
#279=ORIENTED_EDGE('',*,*,#360,.T.);
#280=ORIENTED_EDGE('',*,*,#361,.F.);
#281=ORIENTED_EDGE('',*,*,#355,.F.);
#282=CARTESIAN_POINT('',(1.76042977377431E-15,-2.27373675443232E-13,-28.7499999999999));
#283=DIRECTION('',(6.12323399573677E-17,0.0,-1.0));
#284=DIRECTION('',(0.0,1.0,0.0));
#285=SURFACE_STYLE_FILL_AREA(#362);
#286=ORIENTED_EDGE('',*,*,#360,.F.);
#287=ORIENTED_EDGE('',*,*,#363,.F.);
#288=CARTESIAN_POINT('',(5.51091059616302E-16,2.49999999999991,-8.99999999999989));
#289=DIRECTION('',(-6.12323399573677E-17,0.0,1.0));
#290=DIRECTION('',(0.0,-1.0,0.0));
#291=SURFACE_STYLE_FILL_AREA(#364);
#292=ORIENTED_EDGE('',*,*,#359,.T.);
#293=ORIENTED_EDGE('',*,*,#365,.F.);
#294=ORIENTED_EDGE('',*,*,#361,.T.);
#295=ORIENTED_EDGE('',*,*,#363,.T.);
#296=CARTESIAN_POINT('',(1.76042977377431E-15,-2.27373675443232E-13,-28.7499999999999));
#297=DIRECTION('',(6.12323399573677E-17,0.0,-1.0));
#298=DIRECTION('',(0.0,1.0,0.0));
#299=SURFACE_STYLE_FILL_AREA(#366);
#300=ORIENTED_EDGE('',*,*,#354,.T.);
#301=ORIENTED_EDGE('',*,*,#367,.F.);
#302=ORIENTED_EDGE('',*,*,#356,.T.);
#303=ORIENTED_EDGE('',*,*,#365,.T.);
#304=CARTESIAN_POINT('',(2.98507657292167E-15,-2.27373675443232E-13,-48.7499999999999));
#305=DIRECTION('',(-6.12323399573677E-17,-0.0,1.0));
#306=DIRECTION('',(0.0,1.0,0.0));
#307=SURFACE_STYLE_FILL_AREA(#368);
#308=ORIENTED_EDGE('',*,*,#357,.T.);
#309=ORIENTED_EDGE('',*,*,#367,.T.);
#310=CARTESIAN_POINT('',(3.00038465791101E-15,2.25000000000003,-48.9999999999999));
#311=DIRECTION('',(6.12323399573677E-17,0.0,-1.0));
#312=DIRECTION('',(0.0,1.0,0.0));
#313=CARTESIAN_POINT('',(0.0,-2.27373675443232E-13,0.0));
#314=VECTOR('',#369,1.0);
#315=CARTESIAN_POINT('',(-1.30524583050902E-30,5.0,2.1316282072803E-14));
#316=VECTOR('',#370,1.0);
#317=CARTESIAN_POINT('',(-2.38806125833733E-15,5.00000000000023,38.9999999999998));
#318=VECTOR('',#371,1.0);
#319=CARTESIAN_POINT('',(-2.44929359829469E-15,4.00000000000023,39.9999999999998));
#320=VECTOR('',#372,1.0);
#321=CARTESIAN_POINT('',(-2.44929359829471E-15,-2.27373675443232E-13,40.0000000000001));
#322=VECTOR('',#373,1.0);
#323=CARTESIAN_POINT('',(5.51091059616302E-16,-2.27373675443232E-13,-8.99999999999989));
#324=VECTOR('',#374,1.0);
#325=CARTESIAN_POINT('',(5.51091059616302E-16,5.00000000000006,-8.99999999999989));
#326=VECTOR('',#375,1.0);
#327=FILL_AREA_STYLE('',(#376));
#328=EDGE_CURVE('',#377,#378,#379,.T.);
#329=EDGE_CURVE('',#377,#380,#381,.T.);
#330=EDGE_CURVE('',#382,#380,#383,.T.);
#331=EDGE_CURVE('',#378,#382,#384,.T.);
#332=FILL_AREA_STYLE('',(#385));
#333=EDGE_CURVE('',#386,#377,#387,.T.);
#334=EDGE_CURVE('',#386,#388,#389,.T.);
#335=EDGE_CURVE('',#380,#388,#390,.T.);
#336=FILL_AREA_STYLE('',(#391));
#337=EDGE_CURVE('',#382,#378,#392,.T.);
#338=FILL_AREA_STYLE('',(#393));
#339=EDGE_CURVE('',#388,#386,#394,.T.);
#340=FILL_AREA_STYLE('',(#395));
#341=EDGE_CURVE('',#380,#377,#396,.T.);
#342=FILL_AREA_STYLE('',(#397));
#343=CARTESIAN_POINT('',(3.00038465791101E-15,-2.27373675443232E-13,-48.9999999999999));
#344=VECTOR('',#398,1.0);
#345=CARTESIAN_POINT('',(3.00038465791101E-15,4.50000000000028,-48.9999999999999));
#346=VECTOR('',#399,1.0);
#347=CARTESIAN_POINT('',(2.96976848793233E-15,5.00000000000006,-48.4999999999999));
#348=VECTOR('',#400,1.0);
#349=CARTESIAN_POINT('',(5.51091059616302E-16,5.00000000000006,-8.99999999999989));
#350=VECTOR('',#401,1.0);
#351=CARTESIAN_POINT('',(5.51091059616302E-16,-2.27373675443232E-13,-8.99999999999989));
#352=VECTOR('',#402,1.0);
#353=FILL_AREA_STYLE('',(#403));
#354=EDGE_CURVE('',#404,#405,#406,.T.);
#355=EDGE_CURVE('',#404,#407,#408,.T.);
#356=EDGE_CURVE('',#409,#407,#410,.T.);
#357=EDGE_CURVE('',#405,#409,#411,.T.);
#358=FILL_AREA_STYLE('',(#412));
#359=EDGE_CURVE('',#413,#404,#414,.T.);
#360=EDGE_CURVE('',#413,#415,#416,.T.);
#361=EDGE_CURVE('',#407,#415,#417,.T.);
#362=FILL_AREA_STYLE('',(#418));
#363=EDGE_CURVE('',#415,#413,#419,.T.);
#364=FILL_AREA_STYLE('',(#420));
#365=EDGE_CURVE('',#407,#404,#421,.T.);
#366=FILL_AREA_STYLE('',(#422));
#367=EDGE_CURVE('',#409,#405,#423,.T.);
#368=FILL_AREA_STYLE('',(#424));
#369=DIRECTION('',(1.39226221920954E-30,1.0,-2.27373675443219E-14));
#370=DIRECTION('',(-6.12323399573677E-17,5.83009424213419E-15,1.0));
#371=DIRECTION('',(-4.32978028117746E-17,-0.707106781186547,0.707106781186547));
#372=DIRECTION('',(-5.22620349708861E-30,-1.0,8.52651282912023E-14));
#373=DIRECTION('',(6.12323399573677E-17,0.0,-1.0));
#374=DIRECTION('',(0.0,1.0,0.0));
#375=DIRECTION('',(-6.12323399573677E-17,-6.31593542897873E-15,1.0));
#376=FILL_AREA_STYLE_COLOUR('',#425);
#377=VERTEX_POINT('',#426);
#378=VERTEX_POINT('',#427);
#379=LINE('',#428,#429);
#380=VERTEX_POINT('',#430);
#381=CIRCLE('',#431,5.00000000000045);
#382=VERTEX_POINT('',#432);
#383=LINE('',#433,#434);
#384=CIRCLE('',#435,5.00000000000028);
#385=FILL_AREA_STYLE_COLOUR('',#436);
#386=VERTEX_POINT('',#437);
#387=LINE('',#438,#439);
#388=VERTEX_POINT('',#440);
#389=CIRCLE('',#441,4.00000000000045);
#390=LINE('',#442,#443);
#391=FILL_AREA_STYLE_COLOUR('',#444);
#392=CIRCLE('',#445,5.00000000000028);
#393=FILL_AREA_STYLE_COLOUR('',#446);
#394=CIRCLE('',#447,4.00000000000045);
#395=FILL_AREA_STYLE_COLOUR('',#448);
#396=CIRCLE('',#449,5.00000000000045);
#397=FILL_AREA_STYLE_COLOUR('',#450);
#398=DIRECTION('',(0.0,1.0,0.0));
#399=DIRECTION('',(-4.32978028117845E-17,0.707106781186387,0.707106781186708));
#400=DIRECTION('',(-6.12323399573676E-17,0.0,1.0));
#401=DIRECTION('',(0.0,-1.0,0.0));
#402=DIRECTION('',(6.12323399573676E-17,0.0,-1.0));
#403=FILL_AREA_STYLE_COLOUR('',#451);
#404=VERTEX_POINT('',#452);
#405=VERTEX_POINT('',#453);
#406=LINE('',#454,#455);
#407=VERTEX_POINT('',#456);
#408=CIRCLE('',#457,5.00000000000028);
#409=VERTEX_POINT('',#458);
#410=LINE('',#459,#460);
#411=CIRCLE('',#461,4.50000000000051);
#412=FILL_AREA_STYLE_COLOUR('',#462);
#413=VERTEX_POINT('',#463);
#414=LINE('',#464,#465);
#415=VERTEX_POINT('',#466);
#416=CIRCLE('',#467,5.00000000000028);
#417=LINE('',#468,#469);
#418=FILL_AREA_STYLE_COLOUR('',#470);
#419=CIRCLE('',#471,5.00000000000028);
#420=FILL_AREA_STYLE_COLOUR('',#472);
#421=CIRCLE('',#473,5.00000000000028);
#422=FILL_AREA_STYLE_COLOUR('',#474);
#423=CIRCLE('',#475,4.50000000000051);
#424=FILL_AREA_STYLE_COLOUR('',#476);
#425=COLOUR_RGB('',0.498039215803146,0.498039215803146,0.498039215803146);
#426=CARTESIAN_POINT('',(-2.38806125833733E-15,5.00000000000023,38.9999999999998));
#427=CARTESIAN_POINT('',(5.51091059616302E-16,5.00000000000006,-8.99999999999989));
#428=CARTESIAN_POINT('',(-1.53080849893423E-15,5.00000000000014,15.0));
#429=VECTOR('',#477,1.0);
#430=CARTESIAN_POINT('',(-1.77573785876359E-15,-5.00000000000068,38.9999999999998));
#431=AXIS2_PLACEMENT_3D('',#478,#479,#480);
#432=CARTESIAN_POINT('',(1.16341445919001E-15,-5.00000000000051,-8.99999999999989));
#433=CARTESIAN_POINT('',(-3.06161699786791E-16,-5.0000000000006,15.0));
#434=VECTOR('',#481,1.0);
#435=AXIS2_PLACEMENT_3D('',#482,#483,#484);
#436=COLOUR_RGB('',0.498039215803146,0.498039215803146,0.498039215803146);
#437=CARTESIAN_POINT('',(-2.44929359829469E-15,4.00000000000023,39.9999999999998));
#438=CARTESIAN_POINT('',(-2.96976848793238E-15,4.50000000000023,39.4999999999998));
#439=VECTOR('',#485,1.0);
#440=CARTESIAN_POINT('',(-1.9594348786357E-15,-4.00000000000068,39.9999999999998));
#441=AXIS2_PLACEMENT_3D('',#486,#487,#488);
#442=CARTESIAN_POINT('',(-1.86758636869965E-15,-4.50000000000068,39.4999999999998));
#443=VECTOR('',#489,1.0);
#444=COLOUR_RGB('',0.498039215803146,0.498039215803146,0.498039215803146);
#445=AXIS2_PLACEMENT_3D('',#490,#491,#492);
#446=COLOUR_RGB('',0.498039215803146,0.498039215803146,0.498039215803146);
#447=AXIS2_PLACEMENT_3D('',#493,#494,#495);
#448=COLOUR_RGB('',0.498039215803146,0.498039215803146,0.498039215803146);
#449=AXIS2_PLACEMENT_3D('',#496,#497,#498);
#450=COLOUR_RGB('',0.498039215803146,0.498039215803146,0.498039215803146);
#451=COLOUR_RGB('',0.800000011920929,0.800000011920929,0.800000011920929);
#452=CARTESIAN_POINT('',(2.96976848793233E-15,5.00000000000006,-48.4999999999999));
#453=CARTESIAN_POINT('',(3.00038465791101E-15,4.50000000000028,-48.9999999999999));
#454=CARTESIAN_POINT('',(2.40336934332663E-15,4.75000000000017,-48.7499999999999));
#455=VECTOR('',#499,1.0);
#456=CARTESIAN_POINT('',(3.58209188750604E-15,-5.00000000000051,-48.4999999999999));
#457=AXIS2_PLACEMENT_3D('',#500,#501,#502);
#458=CARTESIAN_POINT('',(3.55147571752738E-15,-4.50000000000074,-48.9999999999999));
#459=CARTESIAN_POINT('',(3.56678380251671E-15,-4.75000000000063,-48.7499999999999));
#460=VECTOR('',#503,1.0);
#461=AXIS2_PLACEMENT_3D('',#504,#505,#506);
#462=COLOUR_RGB('',0.800000011920929,0.800000011920929,0.800000011920929);
#463=CARTESIAN_POINT('',(5.51091059616302E-16,5.00000000000006,-8.99999999999989));
#464=CARTESIAN_POINT('',(1.1481063742006E-15,5.00000000000006,-28.7499999999999));
#465=VECTOR('',#507,1.0);
#466=CARTESIAN_POINT('',(1.16341445919001E-15,-5.00000000000051,-8.99999999999989));
#467=AXIS2_PLACEMENT_3D('',#508,#509,#510);
#468=CARTESIAN_POINT('',(2.37275317334803E-15,-5.00000000000051,-28.7499999999999));
#469=VECTOR('',#511,1.0);
#470=COLOUR_RGB('',0.800000011920929,0.800000011920929,0.800000011920929);
#471=AXIS2_PLACEMENT_3D('',#512,#513,#514);
#472=COLOUR_RGB('',0.800000011920929,0.800000011920929,0.800000011920929);
#473=AXIS2_PLACEMENT_3D('',#515,#516,#517);
#474=COLOUR_RGB('',0.800000011920929,0.800000011920929,0.800000011920929);
#475=AXIS2_PLACEMENT_3D('',#518,#519,#520);
#476=COLOUR_RGB('',0.800000011920929,0.800000011920929,0.800000011920929);
#477=DIRECTION('',(6.12323399573677E-17,0.0,-1.0));
#478=CARTESIAN_POINT('',(-2.38806125833733E-15,-2.27373675443232E-13,38.9999999999998));
#479=DIRECTION('',(6.12323399573677E-17,0.0,-1.0));
#480=DIRECTION('',(0.0,1.0,0.0));
#481=DIRECTION('',(-6.12323399573677E-17,-0.0,1.0));
#482=CARTESIAN_POINT('',(5.51091059616302E-16,-2.27373675443232E-13,-8.99999999999989));
#483=DIRECTION('',(6.12323399573677E-17,0.0,-1.0));
#484=DIRECTION('',(0.0,1.0,0.0));
#485=DIRECTION('',(-4.32978028117747E-17,0.707106781186547,-0.707106781186548));
#486=CARTESIAN_POINT('',(-2.44929359829469E-15,-2.27373675443232E-13,39.9999999999998));
#487=DIRECTION('',(6.12323399573677E-17,0.0,-1.0));
#488=DIRECTION('',(0.0,1.0,0.0));
#489=DIRECTION('',(-1.29893408435324E-16,0.707106781186547,0.707106781186548));
#490=CARTESIAN_POINT('',(5.51091059616302E-16,-2.27373675443232E-13,-8.99999999999989));
#491=DIRECTION('',(6.12323399573677E-17,0.0,-1.0));
#492=DIRECTION('',(0.0,1.0,0.0));
#493=CARTESIAN_POINT('',(-2.44929359829469E-15,-2.27373675443232E-13,39.9999999999998));
#494=DIRECTION('',(6.12323399573677E-17,0.0,-1.0));
#495=DIRECTION('',(0.0,1.0,0.0));
#496=CARTESIAN_POINT('',(-2.38806125833733E-15,-2.27373675443232E-13,38.9999999999998));
#497=DIRECTION('',(6.12323399573677E-17,0.0,-1.0));
#498=DIRECTION('',(0.0,1.0,0.0));
#499=DIRECTION('',(1.29893408435314E-16,-0.707106781186386,-0.707106781186709));
#500=CARTESIAN_POINT('',(2.96976848793233E-15,-2.27373675443232E-13,-48.4999999999999));
#501=DIRECTION('',(6.12323399573677E-17,0.0,-1.0));
#502=DIRECTION('',(0.0,1.0,0.0));
#503=DIRECTION('',(4.32978028117449E-17,-0.707106781186386,0.707106781186709));
#504=CARTESIAN_POINT('',(3.00038465791101E-15,-2.27373675443232E-13,-48.9999999999999));
#505=DIRECTION('',(6.12323399573677E-17,0.0,-1.0));
#506=DIRECTION('',(0.0,1.0,0.0));
#507=DIRECTION('',(6.12323399573677E-17,0.0,-1.0));
#508=CARTESIAN_POINT('',(5.51091059616302E-16,-2.27373675443232E-13,-8.99999999999989));
#509=DIRECTION('',(6.12323399573677E-17,0.0,-1.0));
#510=DIRECTION('',(0.0,1.0,0.0));
#511=DIRECTION('',(-6.12323399573677E-17,-0.0,1.0));
#512=CARTESIAN_POINT('',(5.51091059616302E-16,-2.27373675443232E-13,-8.99999999999989));
#513=DIRECTION('',(6.12323399573677E-17,0.0,-1.0));
#514=DIRECTION('',(0.0,1.0,0.0));
#515=CARTESIAN_POINT('',(2.96976848793233E-15,-2.27373675443232E-13,-48.4999999999999));
#516=DIRECTION('',(6.12323399573677E-17,0.0,-1.0));
#517=DIRECTION('',(0.0,1.0,0.0));
#518=CARTESIAN_POINT('',(3.00038465791101E-15,-2.27373675443232E-13,-48.9999999999999));
#519=DIRECTION('',(6.12323399573677E-17,0.0,-1.0));
#520=DIRECTION('',(0.0,1.0,0.0));
#521=DIRECTION('',(0.0,0.0,1.0));
#522=DIRECTION('',(1.0,0.0,0.0));
#523=CARTESIAN_POINT('',(0.0,0.0,40.000000));
#524=AXIS2_PLACEMENT_3D('PCS', #523,#521,#522);
#525=CARTESIAN_POINT('',(0.0,0.0,0.000000));
#526=AXIS2_PLACEMENT_3D('MCS', #525,#521,#522);
#527=CARTESIAN_POINT('',(0.0,0.0,-49.000000));
#528=AXIS2_PLACEMENT_3D('CIP', #527,#521,#522);
ENDSEC;
END-ISO-10303-21;
