ISO-10303-21;
HEADER;
FILE_DESCRIPTION(('STEP AP214'),'1');
FILE_NAME('Zeichnung2E43.stp','2024-10-22T12:19:48',(' '),(' '),'Spatial InterOp 3D',' ',' ');
FILE_SCHEMA(('AUTOMOTIVE_DESIGN { 1 0 10303 214 1 1 1 1 }'));
ENDSEC;
DATA;
#1=MECHANICAL_DESIGN_GEOMETRIC_PRESENTATION_REPRESENTATION(' ',(#12,#13,#14,#15,#16,#17,#18,#19,#20,#21,#22,#23,#24,#25,#26,#27,#28,#29,#30,#31,#32,#33,#34,#35,#36,#37),#8);
#2=PRODUCT_DEFINITION_CONTEXT('',#38,'design');
#3=APPLICATION_PROTOCOL_DEFINITION('INTERNATIONAL STANDARD','automotive_design',1994,#38);
#4=PRODUCT_CATEGORY_RELATIONSHIP('NONE','NONE',#39,#40);
#5=SHAPE_DEFINITION_REPRESENTATION(#41,#42);
#6=SHAPE_DEFINITION_REPRESENTATION(#41,#43);
#7=SHAPE_DEFINITION_REPRESENTATION(#41,#44);
#8= (GEOMETRIC_REPRESENTATION_CONTEXT(3)GLOBAL_UNCERTAINTY_ASSIGNED_CONTEXT((#47))GLOBAL_UNIT_ASSIGNED_CONTEXT((#49,#50,#51))REPRESENTATION_CONTEXT('NONE','WORKSPACE'));
#12=STYLED_ITEM('',(#53),#54);
#13=STYLED_ITEM('',(#55),#56);
#14=STYLED_ITEM('',(#57),#58);
#15=STYLED_ITEM('',(#59),#60);
#16=STYLED_ITEM('',(#61),#62);
#17=STYLED_ITEM('',(#63),#64);
#18=STYLED_ITEM('',(#65),#66);
#19=STYLED_ITEM('',(#67),#68);
#20=STYLED_ITEM('',(#69),#70);
#21=STYLED_ITEM('',(#71),#72);
#22=STYLED_ITEM('',(#73),#74);
#23=STYLED_ITEM('',(#75),#76);
#24=STYLED_ITEM('',(#77),#78);
#25=STYLED_ITEM('',(#79),#80);
#26=STYLED_ITEM('',(#81),#82);
#27=STYLED_ITEM('',(#83),#84);
#28=STYLED_ITEM('',(#85),#86);
#29=STYLED_ITEM('',(#87),#88);
#30=STYLED_ITEM('',(#89),#90);
#31=STYLED_ITEM('',(#91),#92);
#32=STYLED_ITEM('',(#93),#94);
#33=STYLED_ITEM('',(#95),#96);
#34=STYLED_ITEM('',(#97),#98);
#35=STYLED_ITEM('',(#99),#100);
#36=STYLED_ITEM('',(#101),#102);
#37=STYLED_ITEM('',(#103),#104);
#38=APPLICATION_CONTEXT(' ');
#39=PRODUCT_CATEGORY('part','NONE');
#40=PRODUCT_RELATED_PRODUCT_CATEGORY('detail',' ',(#105));
#41=PRODUCT_DEFINITION_SHAPE('NONE','NONE',#106);
#42=ADVANCED_BREP_SHAPE_REPRESENTATION('1',(#107,#108),#8);
#43=ADVANCED_BREP_SHAPE_REPRESENTATION('2',(#109,#110),#8);
#44=GEOMETRICALLY_BOUNDED_SURFACE_SHAPE_REPRESENTATION('3',(#111,#112),#8);
#47=UNCERTAINTY_MEASURE_WITH_UNIT(LENGTH_MEASURE(1.0E-06),#49,'','');
#49= (CONVERSION_BASED_UNIT('MILLIMETRE',#115)LENGTH_UNIT()NAMED_UNIT(#118));
#50= (NAMED_UNIT(#120)PLANE_ANGLE_UNIT()SI_UNIT($,.RADIAN.));
#51= (NAMED_UNIT(#120)SOLID_ANGLE_UNIT()SI_UNIT($,.STERADIAN.));
#53=PRESENTATION_STYLE_ASSIGNMENT((#126));
#54=COMPOSITE_CURVE('',(#127),.U.);
#55=PRESENTATION_STYLE_ASSIGNMENT((#128));
#56=COMPOSITE_CURVE('',(#129),.U.);
#57=PRESENTATION_STYLE_ASSIGNMENT((#130));
#58=COMPOSITE_CURVE('',(#131),.U.);
#59=PRESENTATION_STYLE_ASSIGNMENT((#132));
#60=COMPOSITE_CURVE('',(#133),.U.);
#61=PRESENTATION_STYLE_ASSIGNMENT((#134));
#62=COMPOSITE_CURVE('',(#135),.U.);
#63=PRESENTATION_STYLE_ASSIGNMENT((#136));
#64=COMPOSITE_CURVE('',(#137),.U.);
#65=PRESENTATION_STYLE_ASSIGNMENT((#138));
#66=COMPOSITE_CURVE('',(#139),.U.);
#67=PRESENTATION_STYLE_ASSIGNMENT((#140));
#68=COMPOSITE_CURVE('',(#141),.U.);
#69=PRESENTATION_STYLE_ASSIGNMENT((#142));
#70=COMPOSITE_CURVE('',(#143),.U.);
#71=PRESENTATION_STYLE_ASSIGNMENT((#144));
#72=COMPOSITE_CURVE('',(#145),.U.);
#73=PRESENTATION_STYLE_ASSIGNMENT((#146));
#74=COMPOSITE_CURVE('',(#147),.U.);
#75=PRESENTATION_STYLE_ASSIGNMENT((#148));
#76=COMPOSITE_CURVE('',(#149),.U.);
#77=PRESENTATION_STYLE_ASSIGNMENT((#150));
#78=COMPOSITE_CURVE('',(#151),.U.);
#79=PRESENTATION_STYLE_ASSIGNMENT((#152));
#80=ADVANCED_FACE('',(#153),#154,.T.);
#81=PRESENTATION_STYLE_ASSIGNMENT((#155));
#82=ADVANCED_FACE('',(#156),#157,.T.);
#83=PRESENTATION_STYLE_ASSIGNMENT((#158));
#84=ADVANCED_FACE('',(#159),#160,.T.);
#85=PRESENTATION_STYLE_ASSIGNMENT((#161));
#86=ADVANCED_FACE('',(#162),#163,.T.);
#87=PRESENTATION_STYLE_ASSIGNMENT((#164));
#88=ADVANCED_FACE('',(#165),#166,.T.);
#89=PRESENTATION_STYLE_ASSIGNMENT((#167));
#90=ADVANCED_FACE('',(#168),#169,.T.);
#91=PRESENTATION_STYLE_ASSIGNMENT((#170));
#92=ADVANCED_FACE('',(#171),#172,.T.);
#93=PRESENTATION_STYLE_ASSIGNMENT((#173));
#94=ADVANCED_FACE('',(#174),#175,.T.);
#95=PRESENTATION_STYLE_ASSIGNMENT((#176));
#96=ADVANCED_FACE('',(#177),#178,.T.);
#97=PRESENTATION_STYLE_ASSIGNMENT((#179));
#98=ADVANCED_FACE('',(#180),#181,.T.);
#99=PRESENTATION_STYLE_ASSIGNMENT((#182));
#100=ADVANCED_FACE('',(#183),#184,.T.);
#101=PRESENTATION_STYLE_ASSIGNMENT((#185));
#102=ADVANCED_FACE('',(#186),#187,.T.);
#103=PRESENTATION_STYLE_ASSIGNMENT((#188));
#104=ADVANCED_FACE('',(#189),#190,.T.);
#105=PRODUCT('1','','PART--DESC',(#191));
#106=PRODUCT_DEFINITION('','NONE',#192,#2);
#107=MANIFOLD_SOLID_BREP('1',#193);
#108=AXIS2_PLACEMENT_3D('',#194,#195,#196);
#109=MANIFOLD_SOLID_BREP('2',#197);
#110=AXIS2_PLACEMENT_3D('',#198,#199,#200);
#111=GEOMETRIC_SET('3',(#54,#56,#58,#60,#62,#64,#66,#68,#70,#72,#74,#76,#78));
#112=AXIS2_PLACEMENT_3D('',#201,#202,#203);
#115=LENGTH_MEASURE_WITH_UNIT(LENGTH_MEASURE(1.0),#204);
#118=DIMENSIONAL_EXPONENTS(1.0,0.0,0.0,0.0,0.0,0.0,0.0);
#120=DIMENSIONAL_EXPONENTS(0.0,0.0,0.0,0.0,0.0,0.0,0.0);
#126=CURVE_STYLE('',#205,POSITIVE_LENGTH_MEASURE(1.0E-06),#206);
#127=COMPOSITE_CURVE_SEGMENT(.CONTINUOUS.,.T.,#207);
#128=CURVE_STYLE('',#208,POSITIVE_LENGTH_MEASURE(1.0E-06),#209);
#129=COMPOSITE_CURVE_SEGMENT(.CONTINUOUS.,.T.,#210);
#130=CURVE_STYLE('',#211,POSITIVE_LENGTH_MEASURE(1.0E-06),#212);
#131=COMPOSITE_CURVE_SEGMENT(.CONTINUOUS.,.T.,#213);
#132=CURVE_STYLE('',#214,POSITIVE_LENGTH_MEASURE(1.0E-06),#215);
#133=COMPOSITE_CURVE_SEGMENT(.CONTINUOUS.,.T.,#216);
#134=CURVE_STYLE('',#217,POSITIVE_LENGTH_MEASURE(1.0E-06),#218);
#135=COMPOSITE_CURVE_SEGMENT(.CONTINUOUS.,.T.,#219);
#136=CURVE_STYLE('',#220,POSITIVE_LENGTH_MEASURE(1.0E-06),#221);
#137=COMPOSITE_CURVE_SEGMENT(.CONTINUOUS.,.T.,#222);
#138=CURVE_STYLE('',#223,POSITIVE_LENGTH_MEASURE(1.0E-06),#224);
#139=COMPOSITE_CURVE_SEGMENT(.CONTINUOUS.,.T.,#225);
#140=CURVE_STYLE('',#226,POSITIVE_LENGTH_MEASURE(1.0E-06),#227);
#141=COMPOSITE_CURVE_SEGMENT(.CONTINUOUS.,.T.,#228);
#142=CURVE_STYLE('',#229,POSITIVE_LENGTH_MEASURE(1.0E-06),#230);
#143=COMPOSITE_CURVE_SEGMENT(.CONTINUOUS.,.T.,#231);
#144=CURVE_STYLE('',#232,POSITIVE_LENGTH_MEASURE(1.0E-06),#233);
#145=COMPOSITE_CURVE_SEGMENT(.CONTINUOUS.,.T.,#234);
#146=CURVE_STYLE('',#235,POSITIVE_LENGTH_MEASURE(1.0E-06),#236);
#147=COMPOSITE_CURVE_SEGMENT(.CONTINUOUS.,.T.,#237);
#148=CURVE_STYLE('',#238,POSITIVE_LENGTH_MEASURE(1.0E-06),#239);
#149=COMPOSITE_CURVE_SEGMENT(.CONTINUOUS.,.T.,#240);
#150=CURVE_STYLE('',#241,POSITIVE_LENGTH_MEASURE(1.0E-06),#242);
#151=COMPOSITE_CURVE_SEGMENT(.CONTINUOUS.,.T.,#243);
#152=SURFACE_STYLE_USAGE(.BOTH.,#244);
#153=FACE_OUTER_BOUND('',#245,.T.);
#154=CONICAL_SURFACE('',#246,2.3,1.22173047639603);
#155=SURFACE_STYLE_USAGE(.BOTH.,#247);
#156=FACE_OUTER_BOUND('',#248,.T.);
#157=CONICAL_SURFACE('',#249,4.8,0.785398163397442);
#158=SURFACE_STYLE_USAGE(.BOTH.,#250);
#159=FACE_OUTER_BOUND('',#251,.T.);
#160=CYLINDRICAL_SURFACE('',#252,5.0);
#161=SURFACE_STYLE_USAGE(.BOTH.,#253);
#162=FACE_OUTER_BOUND('',#254,.T.);
#163=CYLINDRICAL_SURFACE('',#255,5.0);
#164=SURFACE_STYLE_USAGE(.BOTH.,#256);
#165=FACE_OUTER_BOUND('',#257,.T.);
#166=CONICAL_SURFACE('',#258,4.8,0.785398163397442);
#167=SURFACE_STYLE_USAGE(.BOTH.,#259);
#168=FACE_OUTER_BOUND('',#260,.T.);
#169=CONICAL_SURFACE('',#261,2.3,1.22173047639603);
#170=SURFACE_STYLE_USAGE(.BOTH.,#262);
#171=FACE_OUTER_BOUND('',#263,.T.);
#172=PLANE('',#264);
#173=SURFACE_STYLE_USAGE(.BOTH.,#265);
#174=FACE_OUTER_BOUND('',#266,.T.);
#175=CYLINDRICAL_SURFACE('',#267,5.0);
#176=SURFACE_STYLE_USAGE(.BOTH.,#268);
#177=FACE_OUTER_BOUND('',#269,.T.);
#178=CONICAL_SURFACE('',#270,4.0,0.785398163397448);
#179=SURFACE_STYLE_USAGE(.BOTH.,#271);
#180=FACE_OUTER_BOUND('',#272,.T.);
#181=PLANE('',#273);
#182=SURFACE_STYLE_USAGE(.BOTH.,#274);
#183=FACE_OUTER_BOUND('',#275,.T.);
#184=CONICAL_SURFACE('',#276,4.0,0.785398163397448);
#185=SURFACE_STYLE_USAGE(.BOTH.,#277);
#186=FACE_OUTER_BOUND('',#278,.T.);
#187=CYLINDRICAL_SURFACE('',#279,5.0);
#188=SURFACE_STYLE_USAGE(.BOTH.,#280);
#189=FACE_OUTER_BOUND('',#281,.T.);
#190=PLANE('',#282);
#191=PRODUCT_CONTEXT('',#38,'mechanical');
#192=PRODUCT_DEFINITION_FORMATION_WITH_SPECIFIED_SOURCE(' ','NONE',#105,.NOT_KNOWN.);
#193=CLOSED_SHELL('',(#80,#82,#84,#86,#88,#90,#92));
#194=CARTESIAN_POINT('',(0.0,0.0,0.0));
#195=DIRECTION('',(0.0,0.0,1.0));
#196=DIRECTION('',(1.0,0.0,0.0));
#197=CLOSED_SHELL('',(#94,#96,#98,#100,#102,#104));
#198=CARTESIAN_POINT('',(0.0,0.0,0.0));
#199=DIRECTION('',(0.0,0.0,1.0));
#200=DIRECTION('',(1.0,0.0,0.0));
#201=CARTESIAN_POINT('',(0.0,0.0,0.0));
#202=DIRECTION('',(0.0,0.0,1.0));
#203=DIRECTION('',(1.0,0.0,0.0));
#204= (NAMED_UNIT(#118)LENGTH_UNIT()SI_UNIT(.MILLI.,.METRE.));
#205=DRAUGHTING_PRE_DEFINED_CURVE_FONT('continuous');
#206=COLOUR_RGB('',0.0,0.0,1.0);
#207=TRIMMED_CURVE('',#284,(PARAMETER_VALUE(0.0)),(PARAMETER_VALUE(4.8952177533892)),.T.,.UNSPECIFIED.);
#208=DRAUGHTING_PRE_DEFINED_CURVE_FONT('continuous');
#209=COLOUR_RGB('',0.0,0.0,1.0);
#210=TRIMMED_CURVE('',#285,(PARAMETER_VALUE(0.0)),(PARAMETER_VALUE(0.565685424949242)),.T.,.UNSPECIFIED.);
#211=DRAUGHTING_PRE_DEFINED_CURVE_FONT('continuous');
#212=COLOUR_RGB('',0.498039215803146,0.498039215803146,0.498039215803146);
#213=TRIMMED_CURVE('',#286,(PARAMETER_VALUE(0.0)),(PARAMETER_VALUE(2.0)),.T.,.UNSPECIFIED.);
#214=DRAUGHTING_PRE_DEFINED_CURVE_FONT('continuous');
#215=COLOUR_RGB('',0.0,0.0,1.0);
#216=TRIMMED_CURVE('',#287,(PARAMETER_VALUE(0.0)),(PARAMETER_VALUE(5.0)),.T.,.UNSPECIFIED.);
#217=DRAUGHTING_PRE_DEFINED_CURVE_FONT('continuous');
#218=COLOUR_RGB('',0.498039215803146,0.498039215803146,0.498039215803146);
#219=TRIMMED_CURVE('',#288,(PARAMETER_VALUE(0.0)),(PARAMETER_VALUE(5.0)),.T.,.UNSPECIFIED.);
#220=DRAUGHTING_PRE_DEFINED_CURVE_FONT('continuous');
#221=COLOUR_RGB('',0.0,0.0,1.0);
#222=TRIMMED_CURVE('',#289,(PARAMETER_VALUE(0.0)),(PARAMETER_VALUE(44.9257369223755)),.T.,.UNSPECIFIED.);
#223=DRAUGHTING_PRE_DEFINED_CURVE_FONT('continuous');
#224=COLOUR_RGB('',0.0,0.0,1.0);
#225=TRIMMED_CURVE('',#290,(PARAMETER_VALUE(0.0)),(PARAMETER_VALUE(47.0)),.T.,.UNSPECIFIED.);
#226=DRAUGHTING_PRE_DEFINED_CURVE_FONT('continuous');
#227=COLOUR_RGB('',0.498039215803146,0.498039215803146,0.498039215803146);
#228=TRIMMED_CURVE('',#291,(PARAMETER_VALUE(0.0)),(PARAMETER_VALUE(42.0)),.T.,.UNSPECIFIED.);
#229=DRAUGHTING_PRE_DEFINED_CURVE_FONT('continuous');
#230=COLOUR_RGB('',0.498039215803146,0.498039215803146,0.498039215803146);
#231=TRIMMED_CURVE('',#292,(PARAMETER_VALUE(0.0)),(PARAMETER_VALUE(3.0)),.T.,.UNSPECIFIED.);
#232=DRAUGHTING_PRE_DEFINED_CURVE_FONT('continuous');
#233=COLOUR_RGB('',0.498039215803146,0.498039215803146,0.498039215803146);
#234=TRIMMED_CURVE('',#293,(PARAMETER_VALUE(0.0)),(PARAMETER_VALUE(2.82842712474619)),.T.,.UNSPECIFIED.);
#235=DRAUGHTING_PRE_DEFINED_CURVE_FONT('continuous');
#236=COLOUR_RGB('',0.498039215803146,0.498039215803146,0.498039215803146);
#237=TRIMMED_CURVE('',#294,(PARAMETER_VALUE(0.0)),(PARAMETER_VALUE(38.0)),.T.,.UNSPECIFIED.);
#238=DRAUGHTING_PRE_DEFINED_CURVE_FONT('continuous');
#239=COLOUR_RGB('',0.498039215803146,0.498039215803146,0.498039215803146);
#240=TRIMMED_CURVE('',#295,(PARAMETER_VALUE(0.0)),(PARAMETER_VALUE(1.2E-05)),.T.,.UNSPECIFIED.);
#241=DRAUGHTING_PRE_DEFINED_CURVE_FONT('continuous');
#242=COLOUR_RGB('',0.0,1.0,0.0);
#243=TRIMMED_CURVE('',#296,(PARAMETER_VALUE(0.0)),(PARAMETER_VALUE(5.0)),.T.,.UNSPECIFIED.);
#244=SURFACE_SIDE_STYLE('',(#297));
#245=EDGE_LOOP('',(#298,#299,#300));
#246=AXIS2_PLACEMENT_3D('',#301,#302,#303);
#247=SURFACE_SIDE_STYLE('',(#304));
#248=EDGE_LOOP('',(#305,#306,#307,#308));
#249=AXIS2_PLACEMENT_3D('',#309,#310,#311);
#250=SURFACE_SIDE_STYLE('',(#312));
#251=EDGE_LOOP('',(#313,#314,#315,#316));
#252=AXIS2_PLACEMENT_3D('',#317,#318,#319);
#253=SURFACE_SIDE_STYLE('',(#320));
#254=EDGE_LOOP('',(#321,#322,#323,#324));
#255=AXIS2_PLACEMENT_3D('',#325,#326,#327);
#256=SURFACE_SIDE_STYLE('',(#328));
#257=EDGE_LOOP('',(#329,#330,#331,#332));
#258=AXIS2_PLACEMENT_3D('',#333,#334,#335);
#259=SURFACE_SIDE_STYLE('',(#336));
#260=EDGE_LOOP('',(#337,#338,#339));
#261=AXIS2_PLACEMENT_3D('',#340,#341,#342);
#262=SURFACE_SIDE_STYLE('',(#343));
#263=EDGE_LOOP('',(#344,#345));
#264=AXIS2_PLACEMENT_3D('',#346,#347,#348);
#265=SURFACE_SIDE_STYLE('',(#349));
#266=EDGE_LOOP('',(#350,#351,#352,#353));
#267=AXIS2_PLACEMENT_3D('',#354,#355,#356);
#268=SURFACE_SIDE_STYLE('',(#357));
#269=EDGE_LOOP('',(#358,#359,#360,#361));
#270=AXIS2_PLACEMENT_3D('',#362,#363,#364);
#271=SURFACE_SIDE_STYLE('',(#365));
#272=EDGE_LOOP('',(#366,#367));
#273=AXIS2_PLACEMENT_3D('',#368,#369,#370);
#274=SURFACE_SIDE_STYLE('',(#371));
#275=EDGE_LOOP('',(#372,#373,#374,#375));
#276=AXIS2_PLACEMENT_3D('',#376,#377,#378);
#277=SURFACE_SIDE_STYLE('',(#379));
#278=EDGE_LOOP('',(#380,#381,#382,#383));
#279=AXIS2_PLACEMENT_3D('',#384,#385,#386);
#280=SURFACE_SIDE_STYLE('',(#387));
#281=EDGE_LOOP('',(#388,#389));
#282=AXIS2_PLACEMENT_3D('',#390,#391,#392);
#284=LINE('',#393,#394);
#285=LINE('',#395,#396);
#286=LINE('',#397,#398);
#287=LINE('',#399,#400);
#288=LINE('',#401,#402);
#289=LINE('',#403,#404);
#290=LINE('',#405,#406);
#291=LINE('',#407,#408);
#292=LINE('',#409,#410);
#293=LINE('',#411,#412);
#294=LINE('',#413,#414);
#295=LINE('',#415,#416);
#296=LINE('',#417,#418);
#297=SURFACE_STYLE_FILL_AREA(#419);
#298=ORIENTED_EDGE('',*,*,#420,.F.);
#299=ORIENTED_EDGE('',*,*,#421,.F.);
#300=ORIENTED_EDGE('',*,*,#422,.T.);
#301=CARTESIAN_POINT('',(2.94912513493743E-15,0.0,-48.1628684611877));
#302=DIRECTION('',(-6.12323399573677E-17,-0.0,1.0));
#303=DIRECTION('',(0.0,1.0,0.0));
#304=SURFACE_STYLE_FILL_AREA(#423);
#305=ORIENTED_EDGE('',*,*,#424,.F.);
#306=ORIENTED_EDGE('',*,*,#425,.T.);
#307=ORIENTED_EDGE('',*,*,#426,.F.);
#308=ORIENTED_EDGE('',*,*,#422,.F.);
#309=CARTESIAN_POINT('',(2.88561914397237E-15,0.0,-47.1257369223755));
#310=DIRECTION('',(-6.12323399573677E-17,-0.0,1.0));
#311=DIRECTION('',(0.0,1.0,0.0));
#312=SURFACE_STYLE_FILL_AREA(#427);
#313=ORIENTED_EDGE('',*,*,#428,.F.);
#314=ORIENTED_EDGE('',*,*,#429,.T.);
#315=ORIENTED_EDGE('',*,*,#430,.F.);
#316=ORIENTED_EDGE('',*,*,#425,.F.);
#317=CARTESIAN_POINT('',(1.49791867794781E-15,0.0,-24.4628684611877));
#318=DIRECTION('',(6.12323399573677E-17,0.0,-1.0));
#319=DIRECTION('',(0.0,1.0,0.0));
#320=SURFACE_STYLE_FILL_AREA(#431);
#321=ORIENTED_EDGE('',*,*,#428,.T.);
#322=ORIENTED_EDGE('',*,*,#432,.F.);
#323=ORIENTED_EDGE('',*,*,#430,.T.);
#324=ORIENTED_EDGE('',*,*,#433,.T.);
#325=CARTESIAN_POINT('',(1.49791867794781E-15,0.0,-24.4628684611877));
#326=DIRECTION('',(6.12323399573677E-17,0.0,-1.0));
#327=DIRECTION('',(0.0,1.0,0.0));
#328=SURFACE_STYLE_FILL_AREA(#434);
#329=ORIENTED_EDGE('',*,*,#424,.T.);
#330=ORIENTED_EDGE('',*,*,#435,.F.);
#331=ORIENTED_EDGE('',*,*,#426,.T.);
#332=ORIENTED_EDGE('',*,*,#432,.T.);
#333=CARTESIAN_POINT('',(2.88561914397237E-15,0.0,-47.1257369223755));
#334=DIRECTION('',(-6.12323399573677E-17,-0.0,1.0));
#335=DIRECTION('',(0.0,1.0,0.0));
#336=SURFACE_STYLE_FILL_AREA(#436);
#337=ORIENTED_EDGE('',*,*,#420,.T.);
#338=ORIENTED_EDGE('',*,*,#435,.T.);
#339=ORIENTED_EDGE('',*,*,#421,.T.);
#340=CARTESIAN_POINT('',(2.94912513493743E-15,0.0,-48.1628684611877));
#341=DIRECTION('',(-6.12323399573677E-17,-0.0,1.0));
#342=DIRECTION('',(0.0,1.0,0.0));
#343=SURFACE_STYLE_FILL_AREA(#437);
#344=ORIENTED_EDGE('',*,*,#429,.F.);
#345=ORIENTED_EDGE('',*,*,#433,.F.);
#346=CARTESIAN_POINT('',(1.22464679914735E-16,2.5,-2.0));
#347=DIRECTION('',(-6.12323399573677E-17,0.0,1.0));
#348=DIRECTION('',(0.0,-1.0,0.0));
#349=SURFACE_STYLE_FILL_AREA(#438);
#350=ORIENTED_EDGE('',*,*,#439,.F.);
#351=ORIENTED_EDGE('',*,*,#440,.T.);
#352=ORIENTED_EDGE('',*,*,#441,.F.);
#353=ORIENTED_EDGE('',*,*,#442,.F.);
#354=CARTESIAN_POINT('',(-1.10218211923262E-15,0.0,18.0));
#355=DIRECTION('',(6.12323399573677E-17,0.0,-1.0));
#356=DIRECTION('',(0.0,1.0,0.0));
#357=SURFACE_STYLE_FILL_AREA(#443);
#358=ORIENTED_EDGE('',*,*,#444,.F.);
#359=ORIENTED_EDGE('',*,*,#445,.T.);
#360=ORIENTED_EDGE('',*,*,#446,.F.);
#361=ORIENTED_EDGE('',*,*,#440,.F.);
#362=CARTESIAN_POINT('',(-2.38806125833734E-15,0.0,39.0));
#363=DIRECTION('',(6.12323399573677E-17,-0.0,-1.0));
#364=DIRECTION('',(0.0,1.0,0.0));
#365=SURFACE_STYLE_FILL_AREA(#447);
#366=ORIENTED_EDGE('',*,*,#445,.F.);
#367=ORIENTED_EDGE('',*,*,#448,.F.);
#368=CARTESIAN_POINT('',(-2.44929359829471E-15,1.5,40.0));
#369=DIRECTION('',(-6.12323399573677E-17,0.0,1.0));
#370=DIRECTION('',(0.0,-1.0,0.0));
#371=SURFACE_STYLE_FILL_AREA(#449);
#372=ORIENTED_EDGE('',*,*,#444,.T.);
#373=ORIENTED_EDGE('',*,*,#450,.F.);
#374=ORIENTED_EDGE('',*,*,#446,.T.);
#375=ORIENTED_EDGE('',*,*,#448,.T.);
#376=CARTESIAN_POINT('',(-2.38806125833734E-15,0.0,39.0));
#377=DIRECTION('',(6.12323399573677E-17,-0.0,-1.0));
#378=DIRECTION('',(0.0,1.0,0.0));
#379=SURFACE_STYLE_FILL_AREA(#451);
#380=ORIENTED_EDGE('',*,*,#439,.T.);
#381=ORIENTED_EDGE('',*,*,#452,.F.);
#382=ORIENTED_EDGE('',*,*,#441,.T.);
#383=ORIENTED_EDGE('',*,*,#450,.T.);
#384=CARTESIAN_POINT('',(-1.10218211923262E-15,0.0,18.0));
#385=DIRECTION('',(6.12323399573677E-17,0.0,-1.0));
#386=DIRECTION('',(0.0,1.0,0.0));
#387=SURFACE_STYLE_FILL_AREA(#453);
#388=ORIENTED_EDGE('',*,*,#442,.T.);
#389=ORIENTED_EDGE('',*,*,#452,.T.);
#390=CARTESIAN_POINT('',(1.22464679914735E-16,2.5,-2.0));
#391=DIRECTION('',(6.12323399573677E-17,0.0,-1.0));
#392=DIRECTION('',(0.0,1.0,0.0));
#393=CARTESIAN_POINT('',(3.00038465791102E-15,0.0,-49.0));
#394=VECTOR('',#454,1.0);
#395=CARTESIAN_POINT('',(2.89786561196384E-15,4.6,-47.3257369223755));
#396=VECTOR('',#455,1.0);
#397=CARTESIAN_POINT('',(0.0,5.0,0.0));
#398=VECTOR('',#456,1.0);
#399=CARTESIAN_POINT('',(1.22464679914735E-16,5.0,-2.0));
#400=VECTOR('',#457,1.0);
#401=CARTESIAN_POINT('',(1.22464679914735E-16,5.0,-2.0));
#402=VECTOR('',#458,1.0);
#403=CARTESIAN_POINT('',(1.22464679914735E-16,5.0,-2.0));
#404=VECTOR('',#459,1.0);
#405=CARTESIAN_POINT('',(1.22464679914735E-16,0.0,-2.0));
#406=VECTOR('',#460,1.0);
#407=CARTESIAN_POINT('',(1.22464679914735E-16,0.0,-2.0));
#408=VECTOR('',#461,1.0);
#409=CARTESIAN_POINT('',(-2.44929359829471E-15,0.0,40.0));
#410=VECTOR('',#462,1.0);
#411=CARTESIAN_POINT('',(-2.44929359829471E-15,3.0,40.0));
#412=VECTOR('',#463,1.0);
#413=CARTESIAN_POINT('',(-2.32682891837997E-15,5.0,38.0));
#414=VECTOR('',#464,1.0);
#415=CARTESIAN_POINT('',(-6.0E-06,5.0,0.0));
#416=VECTOR('',#465,1.0);
#417=CARTESIAN_POINT('',(0.0,5.0,0.0));
#418=VECTOR('',#466,1.0);
#419=FILL_AREA_STYLE('',(#467));
#420=EDGE_CURVE('',#468,#469,#470,.T.);
#421=EDGE_CURVE('',#471,#468,#472,.T.);
#422=EDGE_CURVE('',#471,#469,#473,.T.);
#423=FILL_AREA_STYLE('',(#474));
#424=EDGE_CURVE('',#475,#471,#476,.T.);
#425=EDGE_CURVE('',#475,#477,#478,.T.);
#426=EDGE_CURVE('',#469,#477,#479,.T.);
#427=FILL_AREA_STYLE('',(#480));
#428=EDGE_CURVE('',#481,#475,#482,.T.);
#429=EDGE_CURVE('',#481,#483,#484,.T.);
#430=EDGE_CURVE('',#477,#483,#485,.T.);
#431=FILL_AREA_STYLE('',(#486));
#432=EDGE_CURVE('',#477,#475,#487,.T.);
#433=EDGE_CURVE('',#483,#481,#488,.T.);
#434=FILL_AREA_STYLE('',(#489));
#435=EDGE_CURVE('',#469,#471,#490,.T.);
#436=FILL_AREA_STYLE('',(#491));
#437=FILL_AREA_STYLE('',(#492));
#438=FILL_AREA_STYLE('',(#493));
#439=EDGE_CURVE('',#494,#495,#496,.T.);
#440=EDGE_CURVE('',#494,#497,#498,.T.);
#441=EDGE_CURVE('',#499,#497,#500,.T.);
#442=EDGE_CURVE('',#495,#499,#501,.T.);
#443=FILL_AREA_STYLE('',(#502));
#444=EDGE_CURVE('',#503,#494,#504,.T.);
#445=EDGE_CURVE('',#503,#505,#506,.T.);
#446=EDGE_CURVE('',#497,#505,#507,.T.);
#447=FILL_AREA_STYLE('',(#508));
#448=EDGE_CURVE('',#505,#503,#509,.T.);
#449=FILL_AREA_STYLE('',(#510));
#450=EDGE_CURVE('',#497,#494,#511,.T.);
#451=FILL_AREA_STYLE('',(#512));
#452=EDGE_CURVE('',#499,#495,#513,.T.);
#453=FILL_AREA_STYLE('',(#514));
#454=DIRECTION('',(-2.0942693688385E-17,0.939692620785908,0.342020143325669));
#455=DIRECTION('',(-4.32978028117751E-17,0.707106781186543,0.707106781186552));
#456=DIRECTION('',(6.12323399573677E-17,0.0,-1.0));
#457=DIRECTION('',(0.0,-1.0,0.0));
#458=DIRECTION('',(0.0,-1.0,0.0));
#459=DIRECTION('',(6.12323399573677E-17,0.0,-1.0));
#460=DIRECTION('',(6.12323399573677E-17,0.0,-1.0));
#461=DIRECTION('',(-6.12323399573677E-17,0.0,1.0));
#462=DIRECTION('',(0.0,1.0,0.0));
#463=DIRECTION('',(4.32978028117747E-17,0.707106781186548,-0.707106781186547));
#464=DIRECTION('',(6.12323399573677E-17,0.0,-1.0));
#465=DIRECTION('',(1.0,0.0,0.0));
#466=DIRECTION('',(0.0,-1.0,0.0));
#467=FILL_AREA_STYLE_COLOUR('',#515);
#468=VERTEX_POINT('',#516);
#469=VERTEX_POINT('',#517);
#470=LINE('',#518,#519);
#471=VERTEX_POINT('',#520);
#472=LINE('',#521,#522);
#473=CIRCLE('',#523,4.6);
#474=FILL_AREA_STYLE_COLOUR('',#524);
#475=VERTEX_POINT('',#525);
#476=LINE('',#526,#527);
#477=VERTEX_POINT('',#528);
#478=CIRCLE('',#529,5.0);
#479=LINE('',#530,#531);
#480=FILL_AREA_STYLE_COLOUR('',#532);
#481=VERTEX_POINT('',#533);
#482=LINE('',#534,#535);
#483=VERTEX_POINT('',#536);
#484=CIRCLE('',#537,5.0);
#485=LINE('',#538,#539);
#486=FILL_AREA_STYLE_COLOUR('',#540);
#487=CIRCLE('',#541,5.0);
#488=CIRCLE('',#542,5.0);
#489=FILL_AREA_STYLE_COLOUR('',#543);
#490=CIRCLE('',#544,4.6);
#491=FILL_AREA_STYLE_COLOUR('',#545);
#492=FILL_AREA_STYLE_COLOUR('',#546);
#493=FILL_AREA_STYLE_COLOUR('',#547);
#494=VERTEX_POINT('',#548);
#495=VERTEX_POINT('',#549);
#496=LINE('',#550,#551);
#497=VERTEX_POINT('',#552);
#498=CIRCLE('',#553,5.0);
#499=VERTEX_POINT('',#554);
#500=LINE('',#555,#556);
#501=CIRCLE('',#557,5.0);
#502=FILL_AREA_STYLE_COLOUR('',#558);
#503=VERTEX_POINT('',#559);
#504=LINE('',#560,#561);
#505=VERTEX_POINT('',#562);
#506=CIRCLE('',#563,3.0);
#507=LINE('',#564,#565);
#508=FILL_AREA_STYLE_COLOUR('',#566);
#509=CIRCLE('',#567,3.0);
#510=FILL_AREA_STYLE_COLOUR('',#568);
#511=CIRCLE('',#569,5.0);
#512=FILL_AREA_STYLE_COLOUR('',#570);
#513=CIRCLE('',#571,5.0);
#514=FILL_AREA_STYLE_COLOUR('',#572);
#515=COLOUR_RGB('',0.800000011920929,0.800000011920929,0.800000011920929);
#516=CARTESIAN_POINT('',(3.00038465791102E-15,0.0,-49.0));
#517=CARTESIAN_POINT('',(3.46120313957162E-15,-4.6,-47.3257369223755));
#518=CARTESIAN_POINT('',(3.23079389874132E-15,-2.3,-48.1628684611877));
#519=VECTOR('',#573,1.0);
#520=CARTESIAN_POINT('',(2.89786561196384E-15,4.6,-47.3257369223755));
#521=CARTESIAN_POINT('',(2.66745637113354E-15,2.3,-48.1628684611877));
#522=VECTOR('',#574,1.0);
#523=AXIS2_PLACEMENT_3D('',#575,#576,#577);
#524=COLOUR_RGB('',0.800000011920929,0.800000011920929,0.800000011920929);
#525=CARTESIAN_POINT('',(2.87337267598089E-15,5.0,-46.9257369223755));
#526=CARTESIAN_POINT('',(2.29778868038164E-15,4.8,-47.1257369223755));
#527=VECTOR('',#578,1.0);
#528=CARTESIAN_POINT('',(3.48569607555457E-15,-5.0,-46.9257369223755));
#529=AXIS2_PLACEMENT_3D('',#579,#580,#581);
#530=CARTESIAN_POINT('',(3.4734496075631E-15,-4.8,-47.1257369223755));
#531=VECTOR('',#582,1.0);
#532=COLOUR_RGB('',0.800000011920929,0.800000011920929,0.800000011920929);
#533=CARTESIAN_POINT('',(1.22464679914735E-16,5.0,-2.0));
#534=CARTESIAN_POINT('',(8.85595278374138E-16,5.0,-24.4628684611877));
#535=VECTOR('',#583,1.0);
#536=CARTESIAN_POINT('',(7.34788079488412E-16,-5.0,-2.0));
#537=AXIS2_PLACEMENT_3D('',#584,#585,#586);
#538=CARTESIAN_POINT('',(2.11024207752149E-15,-5.0,-24.4628684611877));
#539=VECTOR('',#587,1.0);
#540=COLOUR_RGB('',0.800000011920929,0.800000011920929,0.800000011920929);
#541=AXIS2_PLACEMENT_3D('',#588,#589,#590);
#542=AXIS2_PLACEMENT_3D('',#591,#592,#593);
#543=COLOUR_RGB('',0.800000011920929,0.800000011920929,0.800000011920929);
#544=AXIS2_PLACEMENT_3D('',#594,#595,#596);
#545=COLOUR_RGB('',0.800000011920929,0.800000011920929,0.800000011920929);
#546=COLOUR_RGB('',0.800000011920929,0.800000011920929,0.800000011920929);
#547=COLOUR_RGB('',0.498039215803146,0.498039215803146,0.498039215803146);
#548=CARTESIAN_POINT('',(-2.32682891837997E-15,5.0,38.0));
#549=CARTESIAN_POINT('',(1.22464679914735E-16,5.0,-2.0));
#550=CARTESIAN_POINT('',(-1.71450551880629E-15,5.0,18.0));
#551=VECTOR('',#597,1.0);
#552=CARTESIAN_POINT('',(-1.7145055188063E-15,-5.0,38.0));
#553=AXIS2_PLACEMENT_3D('',#598,#599,#600);
#554=CARTESIAN_POINT('',(7.34788079488412E-16,-5.0,-2.0));
#555=CARTESIAN_POINT('',(-4.89858719658941E-16,-5.0,18.0));
#556=VECTOR('',#601,1.0);
#557=AXIS2_PLACEMENT_3D('',#602,#603,#604);
#558=COLOUR_RGB('',0.498039215803146,0.498039215803146,0.498039215803146);
#559=CARTESIAN_POINT('',(-2.44929359829471E-15,3.0,40.0));
#560=CARTESIAN_POINT('',(-2.87791997799628E-15,4.0,39.0));
#561=VECTOR('',#605,1.0);
#562=CARTESIAN_POINT('',(-2.0818995585505E-15,-3.0,40.0));
#563=AXIS2_PLACEMENT_3D('',#606,#607,#608);
#564=CARTESIAN_POINT('',(-1.8982025386784E-15,-4.0,39.0));
#565=VECTOR('',#609,1.0);
#566=COLOUR_RGB('',0.498039215803146,0.498039215803146,0.498039215803146);
#567=AXIS2_PLACEMENT_3D('',#610,#611,#612);
#568=COLOUR_RGB('',0.498039215803146,0.498039215803146,0.498039215803146);
#569=AXIS2_PLACEMENT_3D('',#613,#614,#615);
#570=COLOUR_RGB('',0.498039215803146,0.498039215803146,0.498039215803146);
#571=AXIS2_PLACEMENT_3D('',#616,#617,#618);
#572=COLOUR_RGB('',0.498039215803146,0.498039215803146,0.498039215803146);
#573=DIRECTION('',(9.41364623343999E-17,-0.939692620785908,0.342020143325669));
#574=DIRECTION('',(1.3602184971117E-16,-0.939692620785908,-0.342020143325669));
#575=CARTESIAN_POINT('',(2.89786561196384E-15,0.0,-47.3257369223755));
#576=DIRECTION('',(6.12323399573677E-17,0.0,-1.0));
#577=DIRECTION('',(0.0,1.0,0.0));
#578=DIRECTION('',(1.29893408435324E-16,-0.707106781186543,-0.707106781186552));
#579=CARTESIAN_POINT('',(2.87337267598089E-15,0.0,-46.9257369223755));
#580=DIRECTION('',(6.12323399573677E-17,0.0,-1.0));
#581=DIRECTION('',(0.0,1.0,0.0));
#582=DIRECTION('',(4.32978028117739E-17,-0.707106781186543,0.707106781186552));
#583=DIRECTION('',(6.12323399573677E-17,0.0,-1.0));
#584=CARTESIAN_POINT('',(1.22464679914735E-16,0.0,-2.0));
#585=DIRECTION('',(6.12323399573677E-17,0.0,-1.0));
#586=DIRECTION('',(0.0,1.0,0.0));
#587=DIRECTION('',(-6.12323399573677E-17,-0.0,1.0));
#588=CARTESIAN_POINT('',(2.87337267598089E-15,0.0,-46.9257369223755));
#589=DIRECTION('',(6.12323399573677E-17,0.0,-1.0));
#590=DIRECTION('',(0.0,1.0,0.0));
#591=CARTESIAN_POINT('',(1.22464679914735E-16,0.0,-2.0));
#592=DIRECTION('',(6.12323399573677E-17,0.0,-1.0));
#593=DIRECTION('',(0.0,1.0,0.0));
#594=CARTESIAN_POINT('',(2.89786561196384E-15,0.0,-47.3257369223755));
#595=DIRECTION('',(6.12323399573677E-17,0.0,-1.0));
#596=DIRECTION('',(0.0,1.0,0.0));
#597=DIRECTION('',(6.12323399573677E-17,0.0,-1.0));
#598=CARTESIAN_POINT('',(-2.32682891837997E-15,0.0,38.0));
#599=DIRECTION('',(6.12323399573677E-17,0.0,-1.0));
#600=DIRECTION('',(0.0,1.0,0.0));
#601=DIRECTION('',(-6.12323399573677E-17,-0.0,1.0));
#602=CARTESIAN_POINT('',(1.22464679914735E-16,0.0,-2.0));
#603=DIRECTION('',(6.12323399573677E-17,0.0,-1.0));
#604=DIRECTION('',(0.0,1.0,0.0));
#605=DIRECTION('',(-4.32978028117746E-17,0.707106781186548,-0.707106781186547));
#606=CARTESIAN_POINT('',(-2.44929359829471E-15,0.0,40.0));
#607=DIRECTION('',(6.12323399573676E-17,0.0,-1.0));
#608=DIRECTION('',(0.0,1.0,0.0));
#609=DIRECTION('',(-1.29893408435324E-16,0.707106781186548,0.707106781186547));
#610=CARTESIAN_POINT('',(-2.44929359829471E-15,0.0,40.0));
#611=DIRECTION('',(6.12323399573676E-17,0.0,-1.0));
#612=DIRECTION('',(0.0,1.0,0.0));
#613=CARTESIAN_POINT('',(-2.32682891837997E-15,0.0,38.0));
#614=DIRECTION('',(6.12323399573677E-17,0.0,-1.0));
#615=DIRECTION('',(0.0,1.0,0.0));
#616=CARTESIAN_POINT('',(1.22464679914735E-16,0.0,-2.0));
#617=DIRECTION('',(6.12323399573677E-17,0.0,-1.0));
#618=DIRECTION('',(0.0,1.0,0.0));
#619=DIRECTION('',(0.0,0.0,1.0));
#620=DIRECTION('',(1.0,0.0,0.0));
#621=CARTESIAN_POINT('',(0.0,0.0,40.000000));
#622=AXIS2_PLACEMENT_3D('PCS', #621,#619,#620);
#623=CARTESIAN_POINT('',(0.0,0.0,0.000000));
#624=AXIS2_PLACEMENT_3D('MCS', #623,#619,#620);
#625=CARTESIAN_POINT('',(0.0,0.0,-49.000000));
#626=AXIS2_PLACEMENT_3D('CIP', #625,#619,#620);
ENDSEC;
END-ISO-10303-21;
