ISO-10303-21;
HEADER;
FILE_DESCRIPTION(('STEP AP214'),'1');
FILE_NAME('608107365-000-00-E43.stp','2024-06-24T11:46:32',(' '),(' '),'Spatial InterOp 3D',' ',' ');
FILE_SCHEMA(('AUTOMOTIVE_DESIGN { 1 0 10303 214 1 1 1 1 }'));
ENDSEC;
DATA;
#1=MECHANICAL_DESIGN_GEOMETRIC_PRESENTATION_REPRESENTATION(' ',(#12,#13,#14,#15,#16,#17,#18,#19,#20,#21,#22,#23,#24,#25,#26,#27,#28,#29,#30,#31,#32,#33,#34,#35,#36),#8);
#2=PRODUCT_DEFINITION_CONTEXT('',#37,'design');
#3=APPLICATION_PROTOCOL_DEFINITION('INTERNATIONAL STANDARD','automotive_design',1994,#37);
#4=PRODUCT_CATEGORY_RELATIONSHIP('NONE','NONE',#38,#39);
#5=SHAPE_DEFINITION_REPRESENTATION(#40,#41);
#6=SHAPE_DEFINITION_REPRESENTATION(#40,#42);
#7=SHAPE_DEFINITION_REPRESENTATION(#40,#43);
#8= (GEOMETRIC_REPRESENTATION_CONTEXT(3)GLOBAL_UNCERTAINTY_ASSIGNED_CONTEXT((#46))GLOBAL_UNIT_ASSIGNED_CONTEXT((#48,#49,#50))REPRESENTATION_CONTEXT('NONE','WORKSPACE'));
#12=STYLED_ITEM('',(#52),#53);
#13=STYLED_ITEM('',(#54),#55);
#14=STYLED_ITEM('',(#56),#57);
#15=STYLED_ITEM('',(#58),#59);
#16=STYLED_ITEM('',(#60),#61);
#17=STYLED_ITEM('',(#62),#63);
#18=STYLED_ITEM('',(#64),#65);
#19=STYLED_ITEM('',(#66),#67);
#20=STYLED_ITEM('',(#68),#69);
#21=STYLED_ITEM('',(#70),#71);
#22=STYLED_ITEM('',(#72),#73);
#23=STYLED_ITEM('',(#74),#75);
#24=STYLED_ITEM('',(#76),#77);
#25=STYLED_ITEM('',(#78),#79);
#26=STYLED_ITEM('',(#80),#81);
#27=STYLED_ITEM('',(#82),#83);
#28=STYLED_ITEM('',(#84),#85);
#29=STYLED_ITEM('',(#86),#87);
#30=STYLED_ITEM('',(#88),#89);
#31=STYLED_ITEM('',(#90),#91);
#32=STYLED_ITEM('',(#92),#93);
#33=STYLED_ITEM('',(#94),#95);
#34=STYLED_ITEM('',(#96),#97);
#35=STYLED_ITEM('',(#98),#99);
#36=STYLED_ITEM('',(#100),#101);
#37=APPLICATION_CONTEXT(' ');
#38=PRODUCT_CATEGORY('part','NONE');
#39=PRODUCT_RELATED_PRODUCT_CATEGORY('detail',' ',(#102));
#40=PRODUCT_DEFINITION_SHAPE('NONE','NONE',#103);
#41=ADVANCED_BREP_SHAPE_REPRESENTATION('1',(#104,#105),#8);
#42=ADVANCED_BREP_SHAPE_REPRESENTATION('2',(#106,#107),#8);
#43=GEOMETRICALLY_BOUNDED_SURFACE_SHAPE_REPRESENTATION('3',(#108,#109),#8);
#46=UNCERTAINTY_MEASURE_WITH_UNIT(LENGTH_MEASURE(1.0E-06),#48,'','');
#48= (CONVERSION_BASED_UNIT('MILLIMETRE',#112)LENGTH_UNIT()NAMED_UNIT(#115));
#49= (NAMED_UNIT(#117)PLANE_ANGLE_UNIT()SI_UNIT($,.RADIAN.));
#50= (NAMED_UNIT(#117)SOLID_ANGLE_UNIT()SI_UNIT($,.STERADIAN.));
#52=PRESENTATION_STYLE_ASSIGNMENT((#123));
#53=COMPOSITE_CURVE('',(#124),.U.);
#54=PRESENTATION_STYLE_ASSIGNMENT((#125));
#55=COMPOSITE_CURVE('',(#126),.U.);
#56=PRESENTATION_STYLE_ASSIGNMENT((#127));
#57=COMPOSITE_CURVE('',(#128),.U.);
#58=PRESENTATION_STYLE_ASSIGNMENT((#129));
#59=COMPOSITE_CURVE('',(#130),.U.);
#60=PRESENTATION_STYLE_ASSIGNMENT((#131));
#61=COMPOSITE_CURVE('',(#132),.U.);
#62=PRESENTATION_STYLE_ASSIGNMENT((#133));
#63=COMPOSITE_CURVE('',(#134),.U.);
#64=PRESENTATION_STYLE_ASSIGNMENT((#135));
#65=COMPOSITE_CURVE('',(#136),.U.);
#66=PRESENTATION_STYLE_ASSIGNMENT((#137));
#67=COMPOSITE_CURVE('',(#138),.U.);
#68=PRESENTATION_STYLE_ASSIGNMENT((#139));
#69=COMPOSITE_CURVE('',(#140),.U.);
#70=PRESENTATION_STYLE_ASSIGNMENT((#141));
#71=COMPOSITE_CURVE('',(#142),.U.);
#72=PRESENTATION_STYLE_ASSIGNMENT((#143));
#73=COMPOSITE_CURVE('',(#144),.U.);
#74=PRESENTATION_STYLE_ASSIGNMENT((#145));
#75=COMPOSITE_CURVE('',(#146),.U.);
#76=PRESENTATION_STYLE_ASSIGNMENT((#147));
#77=ADVANCED_FACE('',(#148),#149,.T.);
#78=PRESENTATION_STYLE_ASSIGNMENT((#150));
#79=ADVANCED_FACE('',(#151),#152,.T.);
#80=PRESENTATION_STYLE_ASSIGNMENT((#153));
#81=ADVANCED_FACE('',(#154),#155,.T.);
#82=PRESENTATION_STYLE_ASSIGNMENT((#156));
#83=ADVANCED_FACE('',(#157),#158,.T.);
#84=PRESENTATION_STYLE_ASSIGNMENT((#159));
#85=ADVANCED_FACE('',(#160),#161,.T.);
#86=PRESENTATION_STYLE_ASSIGNMENT((#162));
#87=ADVANCED_FACE('',(#163),#164,.T.);
#88=PRESENTATION_STYLE_ASSIGNMENT((#165));
#89=ADVANCED_FACE('',(#166),#167,.T.);
#90=PRESENTATION_STYLE_ASSIGNMENT((#168));
#91=ADVANCED_FACE('',(#169),#170,.T.);
#92=PRESENTATION_STYLE_ASSIGNMENT((#171));
#93=ADVANCED_FACE('',(#172),#173,.T.);
#94=PRESENTATION_STYLE_ASSIGNMENT((#174));
#95=ADVANCED_FACE('',(#175),#176,.T.);
#96=PRESENTATION_STYLE_ASSIGNMENT((#177));
#97=ADVANCED_FACE('',(#178),#179,.T.);
#98=PRESENTATION_STYLE_ASSIGNMENT((#180));
#99=ADVANCED_FACE('',(#181),#182,.T.);
#100=PRESENTATION_STYLE_ASSIGNMENT((#183));
#101=ADVANCED_FACE('',(#184),#185,.T.);
#102=PRODUCT('1','','PART--DESC',(#186));
#103=PRODUCT_DEFINITION('','NONE',#187,#2);
#104=MANIFOLD_SOLID_BREP('1',#188);
#105=AXIS2_PLACEMENT_3D('',#189,#190,#191);
#106=MANIFOLD_SOLID_BREP('2',#192);
#107=AXIS2_PLACEMENT_3D('',#193,#194,#195);
#108=GEOMETRIC_SET('3',(#53,#55,#57,#59,#61,#63,#65,#67,#69,#71,#73,#75));
#109=AXIS2_PLACEMENT_3D('',#196,#197,#198);
#112=LENGTH_MEASURE_WITH_UNIT(LENGTH_MEASURE(1.0),#199);
#115=DIMENSIONAL_EXPONENTS(1.0,0.0,0.0,0.0,0.0,0.0,0.0);
#117=DIMENSIONAL_EXPONENTS(0.0,0.0,0.0,0.0,0.0,0.0,0.0);
#123=CURVE_STYLE('',#200,POSITIVE_LENGTH_MEASURE(1.0E-06),#201);
#124=COMPOSITE_CURVE_SEGMENT(.CONTINUOUS.,.T.,#202);
#125=CURVE_STYLE('',#203,POSITIVE_LENGTH_MEASURE(1.0E-06),#204);
#126=COMPOSITE_CURVE_SEGMENT(.CONTINUOUS.,.T.,#205);
#127=CURVE_STYLE('',#206,POSITIVE_LENGTH_MEASURE(1.0E-06),#207);
#128=COMPOSITE_CURVE_SEGMENT(.CONTINUOUS.,.T.,#208);
#129=CURVE_STYLE('',#209,POSITIVE_LENGTH_MEASURE(1.0E-06),#210);
#130=COMPOSITE_CURVE_SEGMENT(.CONTINUOUS.,.T.,#211);
#131=CURVE_STYLE('',#212,POSITIVE_LENGTH_MEASURE(1.0E-06),#213);
#132=COMPOSITE_CURVE_SEGMENT(.CONTINUOUS.,.T.,#214);
#133=CURVE_STYLE('',#215,POSITIVE_LENGTH_MEASURE(1.0E-06),#216);
#134=COMPOSITE_CURVE_SEGMENT(.CONTINUOUS.,.T.,#217);
#135=CURVE_STYLE('',#218,POSITIVE_LENGTH_MEASURE(1.0E-06),#219);
#136=COMPOSITE_CURVE_SEGMENT(.CONTINUOUS.,.T.,#220);
#137=CURVE_STYLE('',#221,POSITIVE_LENGTH_MEASURE(1.0E-06),#222);
#138=COMPOSITE_CURVE_SEGMENT(.CONTINUOUS.,.T.,#223);
#139=CURVE_STYLE('',#224,POSITIVE_LENGTH_MEASURE(1.0E-06),#225);
#140=COMPOSITE_CURVE_SEGMENT(.CONTINUOUS.,.T.,#226);
#141=CURVE_STYLE('',#227,POSITIVE_LENGTH_MEASURE(1.0E-06),#228);
#142=COMPOSITE_CURVE_SEGMENT(.CONTINUOUS.,.T.,#229);
#143=CURVE_STYLE('',#230,POSITIVE_LENGTH_MEASURE(1.0E-06),#231);
#144=COMPOSITE_CURVE_SEGMENT(.CONTINUOUS.,.T.,#232);
#145=CURVE_STYLE('',#233,POSITIVE_LENGTH_MEASURE(1.0E-06),#234);
#146=COMPOSITE_CURVE_SEGMENT(.CONTINUOUS.,.T.,#235);
#147=SURFACE_STYLE_USAGE(.BOTH.,#236);
#148=FACE_OUTER_BOUND('',#237,.T.);
#149=CONICAL_SURFACE('',#238,0.625,1.22173047639603);
#150=SURFACE_STYLE_USAGE(.BOTH.,#239);
#151=FACE_OUTER_BOUND('',#240,.T.);
#152=CYLINDRICAL_SURFACE('',#241,1.25);
#153=SURFACE_STYLE_USAGE(.BOTH.,#242);
#154=FACE_OUTER_BOUND('',#243,.T.);
#155=CONICAL_SURFACE('',#244,2.125,0.785398163397448);
#156=SURFACE_STYLE_USAGE(.BOTH.,#245);
#157=FACE_OUTER_BOUND('',#246,.T.);
#158=CONICAL_SURFACE('',#247,2.125,0.785398163397448);
#159=SURFACE_STYLE_USAGE(.BOTH.,#248);
#160=FACE_OUTER_BOUND('',#249,.T.);
#161=CYLINDRICAL_SURFACE('',#250,1.25);
#162=SURFACE_STYLE_USAGE(.BOTH.,#251);
#163=FACE_OUTER_BOUND('',#252,.T.);
#164=CONICAL_SURFACE('',#253,0.625,1.22173047639603);
#165=SURFACE_STYLE_USAGE(.BOTH.,#254);
#166=FACE_OUTER_BOUND('',#255,.T.);
#167=PLANE('',#256);
#168=SURFACE_STYLE_USAGE(.BOTH.,#257);
#169=FACE_OUTER_BOUND('',#258,.T.);
#170=CYLINDRICAL_SURFACE('',#259,3.0);
#171=SURFACE_STYLE_USAGE(.BOTH.,#260);
#172=FACE_OUTER_BOUND('',#261,.T.);
#173=CONICAL_SURFACE('',#262,2.35,0.785398163397448);
#174=SURFACE_STYLE_USAGE(.BOTH.,#263);
#175=FACE_OUTER_BOUND('',#264,.T.);
#176=PLANE('',#265);
#177=SURFACE_STYLE_USAGE(.BOTH.,#266);
#178=FACE_OUTER_BOUND('',#267,.T.);
#179=CONICAL_SURFACE('',#268,2.35,0.785398163397448);
#180=SURFACE_STYLE_USAGE(.BOTH.,#269);
#181=FACE_OUTER_BOUND('',#270,.T.);
#182=CYLINDRICAL_SURFACE('',#271,3.0);
#183=SURFACE_STYLE_USAGE(.BOTH.,#272);
#184=FACE_OUTER_BOUND('',#273,.T.);
#185=PLANE('',#274);
#186=PRODUCT_CONTEXT('',#37,'mechanical');
#187=PRODUCT_DEFINITION_FORMATION_WITH_SPECIFIED_SOURCE(' ','NONE',#102,.NOT_KNOWN.);
#188=CLOSED_SHELL('',(#77,#79,#81,#83,#85,#87,#89));
#189=CARTESIAN_POINT('',(0.0,0.0,0.0));
#190=DIRECTION('',(0.0,0.0,1.0));
#191=DIRECTION('',(1.0,0.0,0.0));
#192=CLOSED_SHELL('',(#91,#93,#95,#97,#99,#101));
#193=CARTESIAN_POINT('',(0.0,0.0,0.0));
#194=DIRECTION('',(0.0,0.0,1.0));
#195=DIRECTION('',(1.0,0.0,0.0));
#196=CARTESIAN_POINT('',(0.0,0.0,0.0));
#197=DIRECTION('',(0.0,0.0,1.0));
#198=DIRECTION('',(1.0,0.0,0.0));
#199= (NAMED_UNIT(#115)LENGTH_UNIT()SI_UNIT(.MILLI.,.METRE.));
#200=DRAUGHTING_PRE_DEFINED_CURVE_FONT('continuous');
#201=COLOUR_RGB('',0.0,0.0,1.0);
#202=TRIMMED_CURVE('',#276,(PARAMETER_VALUE(0.0)),(PARAMETER_VALUE(1.33022221559489)),.T.,.UNSPECIFIED.);
#203=DRAUGHTING_PRE_DEFINED_CURVE_FONT('continuous');
#204=COLOUR_RGB('',0.0,0.0,1.0);
#205=TRIMMED_CURVE('',#277,(PARAMETER_VALUE(0.0)),(PARAMETER_VALUE(8.8)),.T.,.UNSPECIFIED.);
#206=DRAUGHTING_PRE_DEFINED_CURVE_FONT('continuous');
#207=COLOUR_RGB('',0.0,0.0,1.0);
#208=TRIMMED_CURVE('',#278,(PARAMETER_VALUE(0.0)),(PARAMETER_VALUE(2.47487373415292)),.T.,.UNSPECIFIED.);
#209=DRAUGHTING_PRE_DEFINED_CURVE_FONT('continuous');
#210=COLOUR_RGB('',0.498039215803146,0.498039215803146,0.498039215803146);
#211=TRIMMED_CURVE('',#279,(PARAMETER_VALUE(0.0)),(PARAMETER_VALUE(14.9950372071672)),.T.,.UNSPECIFIED.);
#212=DRAUGHTING_PRE_DEFINED_CURVE_FONT('continuous');
#213=COLOUR_RGB('',0.0,0.0,1.0);
#214=TRIMMED_CURVE('',#280,(PARAMETER_VALUE(0.0)),(PARAMETER_VALUE(3.0)),.T.,.UNSPECIFIED.);
#215=DRAUGHTING_PRE_DEFINED_CURVE_FONT('continuous');
#216=COLOUR_RGB('',0.498039215803146,0.498039215803146,0.498039215803146);
#217=TRIMMED_CURVE('',#281,(PARAMETER_VALUE(0.0)),(PARAMETER_VALUE(3.0)),.T.,.UNSPECIFIED.);
#218=DRAUGHTING_PRE_DEFINED_CURVE_FONT('continuous');
#219=COLOUR_RGB('',0.498039215803146,0.498039215803146,0.498039215803146);
#220=TRIMMED_CURVE('',#282,(PARAMETER_VALUE(0.0)),(PARAMETER_VALUE(50.9950372071672)),.T.,.UNSPECIFIED.);
#221=DRAUGHTING_PRE_DEFINED_CURVE_FONT('continuous');
#222=COLOUR_RGB('',0.0,0.0,1.0);
#223=TRIMMED_CURVE('',#283,(PARAMETER_VALUE(0.0)),(PARAMETER_VALUE(11.0049627928328)),.T.,.UNSPECIFIED.);
#224=DRAUGHTING_PRE_DEFINED_CURVE_FONT('continuous');
#225=COLOUR_RGB('',0.498039215803146,0.498039215803146,0.498039215803146);
#226=TRIMMED_CURVE('',#284,(PARAMETER_VALUE(0.0)),(PARAMETER_VALUE(1.7)),.T.,.UNSPECIFIED.);
#227=DRAUGHTING_PRE_DEFINED_CURVE_FONT('continuous');
#228=COLOUR_RGB('',0.498039215803146,0.498039215803146,0.498039215803146);
#229=TRIMMED_CURVE('',#285,(PARAMETER_VALUE(0.0)),(PARAMETER_VALUE(1.83847763108502)),.T.,.UNSPECIFIED.);
#230=DRAUGHTING_PRE_DEFINED_CURVE_FONT('continuous');
#231=COLOUR_RGB('',0.498039215803146,0.498039215803146,0.498039215803146);
#232=TRIMMED_CURVE('',#286,(PARAMETER_VALUE(0.0)),(PARAMETER_VALUE(34.7)),.T.,.UNSPECIFIED.);
#233=DRAUGHTING_PRE_DEFINED_CURVE_FONT('continuous');
#234=COLOUR_RGB('',0.0,1.0,0.0);
#235=TRIMMED_CURVE('',#287,(PARAMETER_VALUE(0.0)),(PARAMETER_VALUE(3.0)),.T.,.UNSPECIFIED.);
#236=SURFACE_SIDE_STYLE('',(#288));
#237=EDGE_LOOP('',(#289,#290,#291));
#238=AXIS2_PLACEMENT_3D('',#292,#293,#294);
#239=SURFACE_SIDE_STYLE('',(#295));
#240=EDGE_LOOP('',(#296,#297,#298,#299));
#241=AXIS2_PLACEMENT_3D('',#300,#301,#302);
#242=SURFACE_SIDE_STYLE('',(#303));
#243=EDGE_LOOP('',(#304,#305,#306,#307));
#244=AXIS2_PLACEMENT_3D('',#308,#309,#310);
#245=SURFACE_SIDE_STYLE('',(#311));
#246=EDGE_LOOP('',(#312,#313,#314,#315));
#247=AXIS2_PLACEMENT_3D('',#316,#317,#318);
#248=SURFACE_SIDE_STYLE('',(#319));
#249=EDGE_LOOP('',(#320,#321,#322,#323));
#250=AXIS2_PLACEMENT_3D('',#324,#325,#326);
#251=SURFACE_SIDE_STYLE('',(#327));
#252=EDGE_LOOP('',(#328,#329,#330));
#253=AXIS2_PLACEMENT_3D('',#331,#332,#333);
#254=SURFACE_SIDE_STYLE('',(#334));
#255=EDGE_LOOP('',(#335,#336));
#256=AXIS2_PLACEMENT_3D('',#337,#338,#339);
#257=SURFACE_SIDE_STYLE('',(#340));
#258=EDGE_LOOP('',(#341,#342,#343,#344));
#259=AXIS2_PLACEMENT_3D('',#345,#346,#347);
#260=SURFACE_SIDE_STYLE('',(#348));
#261=EDGE_LOOP('',(#349,#350,#351,#352));
#262=AXIS2_PLACEMENT_3D('',#353,#354,#355);
#263=SURFACE_SIDE_STYLE('',(#356));
#264=EDGE_LOOP('',(#357,#358));
#265=AXIS2_PLACEMENT_3D('',#359,#360,#361);
#266=SURFACE_SIDE_STYLE('',(#362));
#267=EDGE_LOOP('',(#363,#364,#365,#366));
#268=AXIS2_PLACEMENT_3D('',#367,#368,#369);
#269=SURFACE_SIDE_STYLE('',(#370));
#270=EDGE_LOOP('',(#371,#372,#373,#374));
#271=AXIS2_PLACEMENT_3D('',#375,#376,#377);
#272=SURFACE_SIDE_STYLE('',(#378));
#273=EDGE_LOOP('',(#379,#380));
#274=AXIS2_PLACEMENT_3D('',#381,#382,#383);
#276=LINE('',#384,#385);
#277=LINE('',#386,#387);
#278=LINE('',#388,#389);
#279=LINE('',#390,#391);
#280=LINE('',#392,#393);
#281=LINE('',#394,#395);
#282=LINE('',#396,#397);
#283=LINE('',#398,#399);
#284=LINE('',#400,#401);
#285=LINE('',#402,#403);
#286=LINE('',#404,#405);
#287=LINE('',#406,#407);
#288=SURFACE_STYLE_FILL_AREA(#408);
#289=ORIENTED_EDGE('',*,*,#409,.F.);
#290=ORIENTED_EDGE('',*,*,#410,.F.);
#291=ORIENTED_EDGE('',*,*,#411,.T.);
#292=CARTESIAN_POINT('',(1.57811162069221E-15,0.0,-25.7725186035836));
#293=DIRECTION('',(-6.12323399573677E-17,-0.0,1.0));
#294=DIRECTION('',(0.0,1.0,0.0));
#295=SURFACE_STYLE_FILL_AREA(#412);
#296=ORIENTED_EDGE('',*,*,#413,.F.);
#297=ORIENTED_EDGE('',*,*,#414,.T.);
#298=ORIENTED_EDGE('',*,*,#415,.F.);
#299=ORIENTED_EDGE('',*,*,#411,.F.);
#300=CARTESIAN_POINT('',(1.29476010668045E-15,0.0,-21.1450372071672));
#301=DIRECTION('',(6.12323399573677E-17,0.0,-1.0));
#302=DIRECTION('',(0.0,1.0,0.0));
#303=SURFACE_STYLE_FILL_AREA(#416);
#304=ORIENTED_EDGE('',*,*,#417,.F.);
#305=ORIENTED_EDGE('',*,*,#418,.T.);
#306=ORIENTED_EDGE('',*,*,#419,.F.);
#307=ORIENTED_EDGE('',*,*,#414,.F.);
#308=CARTESIAN_POINT('',(9.71759513405338E-16,0.0,-15.8700372071672));
#309=DIRECTION('',(-6.12323399573676E-17,-0.0,1.0));
#310=DIRECTION('',(0.0,1.0,0.0));
#311=SURFACE_STYLE_FILL_AREA(#420);
#312=ORIENTED_EDGE('',*,*,#417,.T.);
#313=ORIENTED_EDGE('',*,*,#421,.F.);
#314=ORIENTED_EDGE('',*,*,#419,.T.);
#315=ORIENTED_EDGE('',*,*,#422,.T.);
#316=CARTESIAN_POINT('',(9.71759513405338E-16,0.0,-15.8700372071672));
#317=DIRECTION('',(-6.12323399573676E-17,-0.0,1.0));
#318=DIRECTION('',(0.0,1.0,0.0));
#319=SURFACE_STYLE_FILL_AREA(#423);
#320=ORIENTED_EDGE('',*,*,#413,.T.);
#321=ORIENTED_EDGE('',*,*,#424,.F.);
#322=ORIENTED_EDGE('',*,*,#415,.T.);
#323=ORIENTED_EDGE('',*,*,#421,.T.);
#324=CARTESIAN_POINT('',(1.29476010668045E-15,0.0,-21.1450372071672));
#325=DIRECTION('',(6.12323399573677E-17,0.0,-1.0));
#326=DIRECTION('',(0.0,1.0,0.0));
#327=SURFACE_STYLE_FILL_AREA(#425);
#328=ORIENTED_EDGE('',*,*,#409,.T.);
#329=ORIENTED_EDGE('',*,*,#424,.T.);
#330=ORIENTED_EDGE('',*,*,#410,.T.);
#331=CARTESIAN_POINT('',(1.57811162069221E-15,0.0,-25.7725186035836));
#332=DIRECTION('',(-6.12323399573677E-17,-0.0,1.0));
#333=DIRECTION('',(0.0,1.0,0.0));
#334=SURFACE_STYLE_FILL_AREA(#426);
#335=ORIENTED_EDGE('',*,*,#418,.F.);
#336=ORIENTED_EDGE('',*,*,#422,.F.);
#337=CARTESIAN_POINT('',(9.18181215942641E-16,1.5,-14.9950372071672));
#338=DIRECTION('',(-6.12323399573677E-17,0.0,1.0));
#339=DIRECTION('',(0.0,-1.0,0.0));
#340=SURFACE_STYLE_FILL_AREA(#427);
#341=ORIENTED_EDGE('',*,*,#428,.F.);
#342=ORIENTED_EDGE('',*,*,#429,.T.);
#343=ORIENTED_EDGE('',*,*,#430,.F.);
#344=ORIENTED_EDGE('',*,*,#431,.F.);
#345=CARTESIAN_POINT('',(-6.03290490289008E-16,0.0,9.85248139641638));
#346=DIRECTION('',(6.12323399573676E-17,0.0,-1.0));
#347=DIRECTION('',(0.0,1.0,0.0));
#348=SURFACE_STYLE_FILL_AREA(#432);
#349=ORIENTED_EDGE('',*,*,#433,.F.);
#350=ORIENTED_EDGE('',*,*,#434,.T.);
#351=ORIENTED_EDGE('',*,*,#435,.F.);
#352=ORIENTED_EDGE('',*,*,#429,.F.);
#353=CARTESIAN_POINT('',(-2.16456321749295E-15,0.0,35.35));
#354=DIRECTION('',(6.12323399573677E-17,-0.0,-1.0));
#355=DIRECTION('',(0.0,1.0,0.0));
#356=SURFACE_STYLE_FILL_AREA(#436);
#357=ORIENTED_EDGE('',*,*,#434,.F.);
#358=ORIENTED_EDGE('',*,*,#437,.F.);
#359=CARTESIAN_POINT('',(-2.20436423846524E-15,0.85,36.0));
#360=DIRECTION('',(-6.12323399573677E-17,0.0,1.0));
#361=DIRECTION('',(0.0,-1.0,0.0));
#362=SURFACE_STYLE_FILL_AREA(#438);
#363=ORIENTED_EDGE('',*,*,#433,.T.);
#364=ORIENTED_EDGE('',*,*,#439,.F.);
#365=ORIENTED_EDGE('',*,*,#435,.T.);
#366=ORIENTED_EDGE('',*,*,#437,.T.);
#367=CARTESIAN_POINT('',(-2.16456321749295E-15,0.0,35.35));
#368=DIRECTION('',(6.12323399573677E-17,-0.0,-1.0));
#369=DIRECTION('',(0.0,1.0,0.0));
#370=SURFACE_STYLE_FILL_AREA(#440);
#371=ORIENTED_EDGE('',*,*,#428,.T.);
#372=ORIENTED_EDGE('',*,*,#441,.F.);
#373=ORIENTED_EDGE('',*,*,#430,.T.);
#374=ORIENTED_EDGE('',*,*,#439,.T.);
#375=CARTESIAN_POINT('',(-6.03290490289008E-16,0.0,9.85248139641638));
#376=DIRECTION('',(6.12323399573676E-17,0.0,-1.0));
#377=DIRECTION('',(0.0,1.0,0.0));
#378=SURFACE_STYLE_FILL_AREA(#442);
#379=ORIENTED_EDGE('',*,*,#431,.T.);
#380=ORIENTED_EDGE('',*,*,#441,.T.);
#381=CARTESIAN_POINT('',(9.18181215942641E-16,1.5,-14.9950372071672));
#382=DIRECTION('',(6.12323399573677E-17,0.0,-1.0));
#383=DIRECTION('',(0.0,1.0,0.0));
#384=CARTESIAN_POINT('',(1.59204083889156E-15,0.0,-26.0));
#385=VECTOR('',#443,1.0);
#386=CARTESIAN_POINT('',(1.56418240249287E-15,1.25,-25.5450372071672));
#387=VECTOR('',#444,1.0);
#388=CARTESIAN_POINT('',(1.02533781086803E-15,1.25,-16.7450372071672));
#389=VECTOR('',#445,1.0);
#390=CARTESIAN_POINT('',(0.0,3.0,0.0));
#391=VECTOR('',#446,1.0);
#392=CARTESIAN_POINT('',(9.18181215942641E-16,3.0,-14.9950372071672));
#393=VECTOR('',#447,1.0);
#394=CARTESIAN_POINT('',(9.18181215942641E-16,3.0,-14.9950372071672));
#395=VECTOR('',#448,1.0);
#396=CARTESIAN_POINT('',(9.18181215942641E-16,0.0,-14.9950372071672));
#397=VECTOR('',#449,1.0);
#398=CARTESIAN_POINT('',(9.18181215942641E-16,0.0,-14.9950372071672));
#399=VECTOR('',#450,1.0);
#400=CARTESIAN_POINT('',(-2.20436423846524E-15,0.0,36.0));
#401=VECTOR('',#451,1.0);
#402=CARTESIAN_POINT('',(-2.20436423846524E-15,1.7,36.0));
#403=VECTOR('',#452,1.0);
#404=CARTESIAN_POINT('',(-2.12476219652066E-15,3.0,34.7));
#405=VECTOR('',#453,1.0);
#406=CARTESIAN_POINT('',(0.0,3.0,0.0));
#407=VECTOR('',#454,1.0);
#408=FILL_AREA_STYLE('',(#455));
#409=EDGE_CURVE('',#456,#457,#458,.T.);
#410=EDGE_CURVE('',#459,#456,#460,.T.);
#411=EDGE_CURVE('',#459,#457,#461,.T.);
#412=FILL_AREA_STYLE('',(#462));
#413=EDGE_CURVE('',#463,#459,#464,.T.);
#414=EDGE_CURVE('',#463,#465,#466,.T.);
#415=EDGE_CURVE('',#457,#465,#467,.T.);
#416=FILL_AREA_STYLE('',(#468));
#417=EDGE_CURVE('',#469,#463,#470,.T.);
#418=EDGE_CURVE('',#469,#471,#472,.T.);
#419=EDGE_CURVE('',#465,#471,#473,.T.);
#420=FILL_AREA_STYLE('',(#474));
#421=EDGE_CURVE('',#465,#463,#475,.T.);
#422=EDGE_CURVE('',#471,#469,#476,.T.);
#423=FILL_AREA_STYLE('',(#477));
#424=EDGE_CURVE('',#457,#459,#478,.T.);
#425=FILL_AREA_STYLE('',(#479));
#426=FILL_AREA_STYLE('',(#480));
#427=FILL_AREA_STYLE('',(#481));
#428=EDGE_CURVE('',#482,#483,#484,.T.);
#429=EDGE_CURVE('',#482,#485,#486,.T.);
#430=EDGE_CURVE('',#487,#485,#488,.T.);
#431=EDGE_CURVE('',#483,#487,#489,.T.);
#432=FILL_AREA_STYLE('',(#490));
#433=EDGE_CURVE('',#491,#482,#492,.T.);
#434=EDGE_CURVE('',#491,#493,#494,.T.);
#435=EDGE_CURVE('',#485,#493,#495,.T.);
#436=FILL_AREA_STYLE('',(#496));
#437=EDGE_CURVE('',#493,#491,#497,.T.);
#438=FILL_AREA_STYLE('',(#498));
#439=EDGE_CURVE('',#485,#482,#499,.T.);
#440=FILL_AREA_STYLE('',(#500));
#441=EDGE_CURVE('',#487,#483,#501,.T.);
#442=FILL_AREA_STYLE('',(#502));
#443=DIRECTION('',(-2.0942693688385E-17,0.939692620785909,0.342020143325668));
#444=DIRECTION('',(-6.12323399573676E-17,0.0,1.0));
#445=DIRECTION('',(-4.32978028117747E-17,0.707106781186548,0.707106781186548));
#446=DIRECTION('',(6.12323399573677E-17,0.0,-1.0));
#447=DIRECTION('',(0.0,-1.0,0.0));
#448=DIRECTION('',(0.0,-1.0,0.0));
#449=DIRECTION('',(-6.12323399573677E-17,0.0,1.0));
#450=DIRECTION('',(6.12323399573677E-17,0.0,-1.0));
#451=DIRECTION('',(0.0,1.0,0.0));
#452=DIRECTION('',(4.32978028117747E-17,0.707106781186548,-0.707106781186547));
#453=DIRECTION('',(6.12323399573677E-17,0.0,-1.0));
#454=DIRECTION('',(0.0,-1.0,0.0));
#455=FILL_AREA_STYLE_COLOUR('',#503);
#456=VERTEX_POINT('',#504);
#457=VERTEX_POINT('',#505);
#458=LINE('',#506,#507);
#459=VERTEX_POINT('',#508);
#460=LINE('',#509,#510);
#461=CIRCLE('',#511,1.25);
#462=FILL_AREA_STYLE_COLOUR('',#512);
#463=VERTEX_POINT('',#513);
#464=LINE('',#514,#515);
#465=VERTEX_POINT('',#516);
#466=CIRCLE('',#517,1.25);
#467=LINE('',#518,#519);
#468=FILL_AREA_STYLE_COLOUR('',#520);
#469=VERTEX_POINT('',#521);
#470=LINE('',#522,#523);
#471=VERTEX_POINT('',#524);
#472=CIRCLE('',#525,3.0);
#473=LINE('',#526,#527);
#474=FILL_AREA_STYLE_COLOUR('',#528);
#475=CIRCLE('',#529,1.25);
#476=CIRCLE('',#530,3.0);
#477=FILL_AREA_STYLE_COLOUR('',#531);
#478=CIRCLE('',#532,1.25);
#479=FILL_AREA_STYLE_COLOUR('',#533);
#480=FILL_AREA_STYLE_COLOUR('',#534);
#481=FILL_AREA_STYLE_COLOUR('',#535);
#482=VERTEX_POINT('',#536);
#483=VERTEX_POINT('',#537);
#484=LINE('',#538,#539);
#485=VERTEX_POINT('',#540);
#486=CIRCLE('',#541,3.0);
#487=VERTEX_POINT('',#542);
#488=LINE('',#543,#544);
#489=CIRCLE('',#545,3.0);
#490=FILL_AREA_STYLE_COLOUR('',#546);
#491=VERTEX_POINT('',#547);
#492=LINE('',#548,#549);
#493=VERTEX_POINT('',#550);
#494=CIRCLE('',#551,1.7);
#495=LINE('',#552,#553);
#496=FILL_AREA_STYLE_COLOUR('',#554);
#497=CIRCLE('',#555,1.7);
#498=FILL_AREA_STYLE_COLOUR('',#556);
#499=CIRCLE('',#557,3.0);
#500=FILL_AREA_STYLE_COLOUR('',#558);
#501=CIRCLE('',#559,3.0);
#502=FILL_AREA_STYLE_COLOUR('',#560);
#503=COLOUR_RGB('',0.800000011920929,0.800000011920929,0.800000011920929);
#504=CARTESIAN_POINT('',(1.59204083889156E-15,0.0,-26.0));
#505=CARTESIAN_POINT('',(1.71726325238629E-15,-1.25,-25.5450372071672));
#506=CARTESIAN_POINT('',(1.65465204563892E-15,-0.625,-25.7725186035836));
#507=VECTOR('',#561,1.0);
#508=CARTESIAN_POINT('',(1.56418240249287E-15,1.25,-25.5450372071672));
#509=CARTESIAN_POINT('',(1.50157119574551E-15,0.625,-25.7725186035836));
#510=VECTOR('',#562,1.0);
#511=AXIS2_PLACEMENT_3D('',#563,#564,#565);
#512=COLOUR_RGB('',0.800000011920929,0.800000011920929,0.800000011920929);
#513=CARTESIAN_POINT('',(1.02533781086803E-15,1.25,-16.7450372071672));
#514=CARTESIAN_POINT('',(1.14167925678703E-15,1.25,-21.1450372071672));
#515=VECTOR('',#566,1.0);
#516=CARTESIAN_POINT('',(1.17841866076145E-15,-1.25,-16.7450372071672));
#517=AXIS2_PLACEMENT_3D('',#567,#568,#569);
#518=CARTESIAN_POINT('',(1.44784095657387E-15,-1.25,-21.1450372071672));
#519=VECTOR('',#570,1.0);
#520=COLOUR_RGB('',0.800000011920929,0.800000011920929,0.800000011920929);
#521=CARTESIAN_POINT('',(9.18181215942641E-16,3.0,-14.9950372071672));
#522=CARTESIAN_POINT('',(7.11522068586526E-16,2.125,-15.8700372071672));
#523=VECTOR('',#571,1.0);
#524=CARTESIAN_POINT('',(1.28557525568685E-15,-3.0,-14.9950372071672));
#525=AXIS2_PLACEMENT_3D('',#572,#573,#574);
#526=CARTESIAN_POINT('',(1.23199695822415E-15,-2.125,-15.8700372071672));
#527=VECTOR('',#575,1.0);
#528=COLOUR_RGB('',0.800000011920929,0.800000011920929,0.800000011920929);
#529=AXIS2_PLACEMENT_3D('',#576,#577,#578);
#530=AXIS2_PLACEMENT_3D('',#579,#580,#581);
#531=COLOUR_RGB('',0.800000011920929,0.800000011920929,0.800000011920929);
#532=AXIS2_PLACEMENT_3D('',#582,#583,#584);
#533=COLOUR_RGB('',0.800000011920929,0.800000011920929,0.800000011920929);
#534=COLOUR_RGB('',0.800000011920929,0.800000011920929,0.800000011920929);
#535=COLOUR_RGB('',0.498039215803146,0.498039215803146,0.498039215803146);
#536=CARTESIAN_POINT('',(-2.12476219652066E-15,3.0,34.7));
#537=CARTESIAN_POINT('',(9.18181215942641E-16,3.0,-14.9950372071672));
#538=CARTESIAN_POINT('',(-9.70684530033214E-16,3.0,9.85248139641638));
#539=VECTOR('',#585,1.0);
#540=CARTESIAN_POINT('',(-1.75736815677645E-15,-3.0,34.7));
#541=AXIS2_PLACEMENT_3D('',#586,#587,#588);
#542=CARTESIAN_POINT('',(1.28557525568685E-15,-3.0,-14.9950372071672));
#543=CARTESIAN_POINT('',(-2.35896450544802E-16,-3.0,9.85248139641638));
#544=VECTOR('',#589,1.0);
#545=AXIS2_PLACEMENT_3D('',#590,#591,#592);
#546=COLOUR_RGB('',0.498039215803146,0.498039215803146,0.498039215803146);
#547=CARTESIAN_POINT('',(-2.20436423846524E-15,1.7,36.0));
#548=CARTESIAN_POINT('',(-2.45235521529257E-15,2.35,35.35));
#549=VECTOR('',#593,1.0);
#550=CARTESIAN_POINT('',(-1.99617428261019E-15,-1.7,36.0));
#551=AXIS2_PLACEMENT_3D('',#594,#595,#596);
#552=CARTESIAN_POINT('',(-1.87677121969332E-15,-2.35,35.35));
#553=VECTOR('',#597,1.0);
#554=COLOUR_RGB('',0.498039215803146,0.498039215803146,0.498039215803146);
#555=AXIS2_PLACEMENT_3D('',#598,#599,#600);
#556=COLOUR_RGB('',0.498039215803146,0.498039215803146,0.498039215803146);
#557=AXIS2_PLACEMENT_3D('',#601,#602,#603);
#558=COLOUR_RGB('',0.498039215803146,0.498039215803146,0.498039215803146);
#559=AXIS2_PLACEMENT_3D('',#604,#605,#606);
#560=COLOUR_RGB('',0.498039215803146,0.498039215803146,0.498039215803146);
#561=DIRECTION('',(9.41364623343999E-17,-0.939692620785909,0.342020143325668));
#562=DIRECTION('',(1.3602184971117E-16,-0.939692620785909,-0.342020143325668));
#563=CARTESIAN_POINT('',(1.56418240249287E-15,0.0,-25.5450372071672));
#564=DIRECTION('',(6.12323399573677E-17,0.0,-1.0));
#565=DIRECTION('',(0.0,1.0,0.0));
#566=DIRECTION('',(6.12323399573677E-17,0.0,-1.0));
#567=CARTESIAN_POINT('',(1.02533781086803E-15,0.0,-16.7450372071672));
#568=DIRECTION('',(6.12323399573677E-17,0.0,-1.0));
#569=DIRECTION('',(0.0,1.0,0.0));
#570=DIRECTION('',(-6.12323399573677E-17,-0.0,1.0));
#571=DIRECTION('',(1.29893408435324E-16,-0.707106781186548,-0.707106781186547));
#572=CARTESIAN_POINT('',(9.18181215942641E-16,0.0,-14.9950372071672));
#573=DIRECTION('',(6.12323399573676E-17,0.0,-1.0));
#574=DIRECTION('',(0.0,1.0,0.0));
#575=DIRECTION('',(4.32978028117747E-17,-0.707106781186548,0.707106781186547));
#576=CARTESIAN_POINT('',(1.02533781086803E-15,0.0,-16.7450372071672));
#577=DIRECTION('',(6.12323399573677E-17,0.0,-1.0));
#578=DIRECTION('',(0.0,1.0,0.0));
#579=CARTESIAN_POINT('',(9.18181215942641E-16,0.0,-14.9950372071672));
#580=DIRECTION('',(6.12323399573676E-17,0.0,-1.0));
#581=DIRECTION('',(0.0,1.0,0.0));
#582=CARTESIAN_POINT('',(1.56418240249287E-15,0.0,-25.5450372071672));
#583=DIRECTION('',(6.12323399573677E-17,0.0,-1.0));
#584=DIRECTION('',(0.0,1.0,0.0));
#585=DIRECTION('',(6.12323399573676E-17,0.0,-1.0));
#586=CARTESIAN_POINT('',(-2.12476219652066E-15,0.0,34.7));
#587=DIRECTION('',(6.12323399573676E-17,0.0,-1.0));
#588=DIRECTION('',(0.0,1.0,0.0));
#589=DIRECTION('',(-6.12323399573676E-17,-0.0,1.0));
#590=CARTESIAN_POINT('',(9.18181215942641E-16,0.0,-14.9950372071672));
#591=DIRECTION('',(6.12323399573676E-17,0.0,-1.0));
#592=DIRECTION('',(0.0,1.0,0.0));
#593=DIRECTION('',(-4.32978028117746E-17,0.707106781186547,-0.707106781186548));
#594=CARTESIAN_POINT('',(-2.20436423846524E-15,0.0,36.0));
#595=DIRECTION('',(6.12323399573677E-17,0.0,-1.0));
#596=DIRECTION('',(0.0,1.0,0.0));
#597=DIRECTION('',(-1.29893408435324E-16,0.707106781186547,0.707106781186548));
#598=CARTESIAN_POINT('',(-2.20436423846524E-15,0.0,36.0));
#599=DIRECTION('',(6.12323399573677E-17,0.0,-1.0));
#600=DIRECTION('',(0.0,1.0,0.0));
#601=CARTESIAN_POINT('',(-2.12476219652066E-15,0.0,34.7));
#602=DIRECTION('',(6.12323399573676E-17,0.0,-1.0));
#603=DIRECTION('',(0.0,1.0,0.0));
#604=CARTESIAN_POINT('',(9.18181215942641E-16,0.0,-14.9950372071672));
#605=DIRECTION('',(6.12323399573676E-17,0.0,-1.0));
#606=DIRECTION('',(0.0,1.0,0.0));
#607=DIRECTION('',(0.0,0.0,1.0));
#608=DIRECTION('',(1.0,0.0,0.0));
#609=CARTESIAN_POINT('',(0.0,0.0,36.000000));
#610=AXIS2_PLACEMENT_3D('PCS', #609,#607,#608);
#611=CARTESIAN_POINT('',(0.0,0.0,0.000000));
#612=AXIS2_PLACEMENT_3D('MCS', #611,#607,#608);
#613=CARTESIAN_POINT('',(0.0,0.0,-26.000000));
#614=AXIS2_PLACEMENT_3D('CIP', #613,#607,#608);
ENDSEC;
END-ISO-10303-21;
