ISO-10303-21;
HEADER;
FILE_DESCRIPTION(('STEP AP242'),'1');
FILE_NAME('607409603-000-01-E43.stp','2021-11-24T08:47:16',(' '),(' '),'Spatial InterOp 3D',' ',' ');
FILE_SCHEMA(('AP242_MANAGED_MODEL_BASED_3D_ENGINEERING_MIM_LF  {1 0 10303 442 1 1 4}'));
ENDSEC;
DATA;
#1=MECHANICAL_DESIGN_GEOMETRIC_PRESENTATION_REPRESENTATION(' ',(#12,#13,#14,#15,#16,#17,#18,#19,#20,#21,#22,#23,#24,#25,#26,#27,#28),#8);
#2=PRODUCT_DEFINITION_CONTEXT('',#29,'design');
#3=APPLICATION_PROTOCOL_DEFINITION('INTERNATIONAL STANDARD','ap242_managed_model_based_3d_engineering',2014,#29);
#4=PRODUCT_CATEGORY_RELATIONSHIP('NONE','NONE',#30,#31);
#5=SHAPE_DEFINITION_REPRESENTATION(#32,#33);
#6=SHAPE_DEFINITION_REPRESENTATION(#32,#34);
#7=SHAPE_DEFINITION_REPRESENTATION(#32,#35);
#8= (GEOMETRIC_REPRESENTATION_CONTEXT(3)GLOBAL_UNCERTAINTY_ASSIGNED_CONTEXT((#38))GLOBAL_UNIT_ASSIGNED_CONTEXT((#40,#41,#42))REPRESENTATION_CONTEXT('NONE','WORKSPACE'));
#12=STYLED_ITEM('',(#44),#45);
#13=STYLED_ITEM('',(#46),#47);
#14=STYLED_ITEM('',(#48),#49);
#15=STYLED_ITEM('',(#50),#51);
#16=STYLED_ITEM('',(#52),#53);
#17=STYLED_ITEM('',(#54),#55);
#18=STYLED_ITEM('',(#56),#57);
#19=STYLED_ITEM('',(#58),#59);
#20=STYLED_ITEM('',(#60),#61);
#21=STYLED_ITEM('',(#62),#63);
#22=STYLED_ITEM('',(#64),#65);
#23=STYLED_ITEM('',(#66),#67);
#24=STYLED_ITEM('',(#68),#69);
#25=STYLED_ITEM('',(#70),#71);
#26=STYLED_ITEM('',(#72),#73);
#27=STYLED_ITEM('',(#74),#75);
#28=STYLED_ITEM('',(#76),#77);
#29=APPLICATION_CONTEXT('managed model based 3d engineering');
#30=PRODUCT_CATEGORY('part','NONE');
#31=PRODUCT_RELATED_PRODUCT_CATEGORY('detail',' ',(#78));
#32=PRODUCT_DEFINITION_SHAPE('NONE','NONE',#79);
#33=ADVANCED_BREP_SHAPE_REPRESENTATION('1',(#80,#81),#8);
#34=ADVANCED_BREP_SHAPE_REPRESENTATION('2',(#82,#83),#8);
#35=GEOMETRICALLY_BOUNDED_SURFACE_SHAPE_REPRESENTATION('3',(#84,#85),#8);
#38=UNCERTAINTY_MEASURE_WITH_UNIT(LENGTH_MEASURE(1.0E-06),#40,'','');
#40= (CONVERSION_BASED_UNIT('MILLIMETRE',#88)LENGTH_UNIT()NAMED_UNIT(#91));
#41= (NAMED_UNIT(#93)PLANE_ANGLE_UNIT()SI_UNIT($,.RADIAN.));
#42= (NAMED_UNIT(#93)SOLID_ANGLE_UNIT()SI_UNIT($,.STERADIAN.));
#44=PRESENTATION_STYLE_ASSIGNMENT((#99));
#45=COMPOSITE_CURVE('',(#100),.U.);
#46=PRESENTATION_STYLE_ASSIGNMENT((#101));
#47=COMPOSITE_CURVE('',(#102),.U.);
#48=PRESENTATION_STYLE_ASSIGNMENT((#103));
#49=ADVANCED_FACE('',(#104),#105,.T.);
#50=PRESENTATION_STYLE_ASSIGNMENT((#106));
#51=ADVANCED_FACE('',(#107),#108,.T.);
#52=PRESENTATION_STYLE_ASSIGNMENT((#109));
#53=ADVANCED_FACE('',(#110),#111,.T.);
#54=PRESENTATION_STYLE_ASSIGNMENT((#112));
#55=ADVANCED_FACE('',(#113),#114,.T.);
#56=PRESENTATION_STYLE_ASSIGNMENT((#115));
#57=ADVANCED_FACE('',(#116),#117,.T.);
#58=PRESENTATION_STYLE_ASSIGNMENT((#118));
#59=ADVANCED_FACE('',(#119),#120,.T.);
#60=PRESENTATION_STYLE_ASSIGNMENT((#121));
#61=ADVANCED_FACE('',(#122),#123,.T.);
#62=PRESENTATION_STYLE_ASSIGNMENT((#124));
#63=ADVANCED_FACE('',(#125),#126,.T.);
#64=PRESENTATION_STYLE_ASSIGNMENT((#127));
#65=ADVANCED_FACE('',(#128),#129,.T.);
#66=PRESENTATION_STYLE_ASSIGNMENT((#130));
#67=ADVANCED_FACE('',(#131),#132,.T.);
#68=PRESENTATION_STYLE_ASSIGNMENT((#133));
#69=ADVANCED_FACE('',(#134),#135,.T.);
#70=PRESENTATION_STYLE_ASSIGNMENT((#136));
#71=ADVANCED_FACE('',(#137),#138,.T.);
#72=PRESENTATION_STYLE_ASSIGNMENT((#139));
#73=ADVANCED_FACE('',(#140),#141,.T.);
#74=PRESENTATION_STYLE_ASSIGNMENT((#142));
#75=ADVANCED_FACE('',(#143),#144,.T.);
#76=PRESENTATION_STYLE_ASSIGNMENT((#145));
#77=ADVANCED_FACE('',(#146),#147,.T.);
#78=PRODUCT('1','','PART--DESC',(#148));
#79=PRODUCT_DEFINITION('','NONE',#149,#2);
#80=MANIFOLD_SOLID_BREP('1',#150);
#81=AXIS2_PLACEMENT_3D('',#151,#152,#153);
#82=MANIFOLD_SOLID_BREP('2',#154);
#83=AXIS2_PLACEMENT_3D('',#155,#156,#157);
#84=GEOMETRIC_SET('3',(#45,#47));
#85=AXIS2_PLACEMENT_3D('',#158,#159,#160);
#88=LENGTH_MEASURE_WITH_UNIT(LENGTH_MEASURE(1.0),#161);
#91=DIMENSIONAL_EXPONENTS(1.0,0.0,0.0,0.0,0.0,0.0,0.0);
#93=DIMENSIONAL_EXPONENTS(0.0,0.0,0.0,0.0,0.0,0.0,0.0);
#99=CURVE_STYLE('',#162,POSITIVE_LENGTH_MEASURE(1.0E-06),#163);
#100=COMPOSITE_CURVE_SEGMENT(.CONTINUOUS.,.T.,#164);
#101=CURVE_STYLE('',#165,POSITIVE_LENGTH_MEASURE(1.0E-06),#166);
#102=COMPOSITE_CURVE_SEGMENT(.CONTINUOUS.,.T.,#167);
#103=SURFACE_STYLE_USAGE(.BOTH.,#168);
#104=FACE_OUTER_BOUND('',#169,.T.);
#105=SPHERICAL_SURFACE('',#170,2.5);
#106=SURFACE_STYLE_USAGE(.BOTH.,#171);
#107=FACE_OUTER_BOUND('',#172,.T.);
#108=CYLINDRICAL_SURFACE('',#173,2.5);
#109=SURFACE_STYLE_USAGE(.BOTH.,#174);
#110=FACE_OUTER_BOUND('',#175,.T.);
#111=PLANE('',#176);
#112=SURFACE_STYLE_USAGE(.BOTH.,#177);
#113=FACE_OUTER_BOUND('',#178,.T.);
#114=CYLINDRICAL_SURFACE('',#179,2.5);
#115=SURFACE_STYLE_USAGE(.BOTH.,#180);
#116=FACE_OUTER_BOUND('',#181,.T.);
#117=SPHERICAL_SURFACE('',#182,2.5);
#118=SURFACE_STYLE_USAGE(.BOTH.,#183);
#119=FACE_OUTER_BOUND('',#184,.T.);
#120=CYLINDRICAL_SURFACE('',#185,2.45);
#121=SURFACE_STYLE_USAGE(.BOTH.,#186);
#122=FACE_OUTER_BOUND('',#187,.T.);
#123=CONICAL_SURFACE('',#188,2.725,0.20943951023932);
#124=SURFACE_STYLE_USAGE(.BOTH.,#189);
#125=FACE_OUTER_BOUND('',#190,.T.);
#126=CYLINDRICAL_SURFACE('',#191,3.0);
#127=SURFACE_STYLE_USAGE(.BOTH.,#192);
#128=FACE_OUTER_BOUND('',#193,.T.);
#129=CONICAL_SURFACE('',#194,2.75,0.785398163397448);
#130=SURFACE_STYLE_USAGE(.BOTH.,#195);
#131=FACE_OUTER_BOUND('',#196,.T.);
#132=PLANE('',#197);
#133=SURFACE_STYLE_USAGE(.BOTH.,#198);
#134=FACE_OUTER_BOUND('',#199,.T.);
#135=CONICAL_SURFACE('',#200,2.75,0.785398163397448);
#136=SURFACE_STYLE_USAGE(.BOTH.,#201);
#137=FACE_OUTER_BOUND('',#202,.T.);
#138=CYLINDRICAL_SURFACE('',#203,3.0);
#139=SURFACE_STYLE_USAGE(.BOTH.,#204);
#140=FACE_OUTER_BOUND('',#205,.T.);
#141=CONICAL_SURFACE('',#206,2.725,0.20943951023932);
#142=SURFACE_STYLE_USAGE(.BOTH.,#207);
#143=FACE_OUTER_BOUND('',#208,.T.);
#144=CYLINDRICAL_SURFACE('',#209,2.45);
#145=SURFACE_STYLE_USAGE(.BOTH.,#210);
#146=FACE_OUTER_BOUND('',#211,.T.);
#147=PLANE('',#212);
#148=PRODUCT_CONTEXT('',#29,'mechanical');
#149=PRODUCT_DEFINITION_FORMATION_WITH_SPECIFIED_SOURCE(' ','NONE',#78,.NOT_KNOWN.);
#150=CLOSED_SHELL('',(#49,#51,#53,#55,#57));
#151=CARTESIAN_POINT('',(0.0,0.0,0.0));
#152=DIRECTION('',(0.0,0.0,1.0));
#153=DIRECTION('',(1.0,0.0,0.0));
#154=CLOSED_SHELL('',(#59,#61,#63,#65,#67,#69,#71,#73,#75,#77));
#155=CARTESIAN_POINT('',(0.0,0.0,0.0));
#156=DIRECTION('',(0.0,0.0,1.0));
#157=DIRECTION('',(1.0,0.0,0.0));
#158=CARTESIAN_POINT('',(0.0,0.0,0.0));
#159=DIRECTION('',(0.0,0.0,1.0));
#160=DIRECTION('',(1.0,0.0,0.0));
#161= (NAMED_UNIT(#91)LENGTH_UNIT()SI_UNIT(.MILLI.,.METRE.));
#162=DRAUGHTING_PRE_DEFINED_CURVE_FONT('continuous');
#163=COLOUR_RGB('',0.0,1.0,0.0);
#164=TRIMMED_CURVE('',#214,(PARAMETER_VALUE(0.0)),(PARAMETER_VALUE(3.0)),.T.,.UNSPECIFIED.);
#165=DRAUGHTING_PRE_DEFINED_CURVE_FONT('continuous');
#166=COLOUR_RGB('',0.0,1.0,0.0);
#167=TRIMMED_CURVE('',#215,(PARAMETER_VALUE(0.0)),(PARAMETER_VALUE(3.0)),.T.,.UNSPECIFIED.);
#168=SURFACE_SIDE_STYLE('',(#216));
#169=EDGE_LOOP('',(#217,#218,#219));
#170=AXIS2_PLACEMENT_3D('',#220,#221,#222);
#171=SURFACE_SIDE_STYLE('',(#223));
#172=EDGE_LOOP('',(#224,#225,#226,#227,#228));
#173=AXIS2_PLACEMENT_3D('',#229,#230,#231);
#174=SURFACE_SIDE_STYLE('',(#232));
#175=EDGE_LOOP('',(#233,#234));
#176=AXIS2_PLACEMENT_3D('',#235,#236,#237);
#177=SURFACE_SIDE_STYLE('',(#238));
#178=EDGE_LOOP('',(#239,#240,#241,#242,#243));
#179=AXIS2_PLACEMENT_3D('',#244,#245,#246);
#180=SURFACE_SIDE_STYLE('',(#247));
#181=EDGE_LOOP('',(#248,#249,#250));
#182=AXIS2_PLACEMENT_3D('',#251,#252,#253);
#183=SURFACE_SIDE_STYLE('',(#254));
#184=EDGE_LOOP('',(#255,#256,#257,#258));
#185=AXIS2_PLACEMENT_3D('',#259,#260,#261);
#186=SURFACE_SIDE_STYLE('',(#262));
#187=EDGE_LOOP('',(#263,#264,#265,#266));
#188=AXIS2_PLACEMENT_3D('',#267,#268,#269);
#189=SURFACE_SIDE_STYLE('',(#270));
#190=EDGE_LOOP('',(#271,#272,#273,#274));
#191=AXIS2_PLACEMENT_3D('',#275,#276,#277);
#192=SURFACE_SIDE_STYLE('',(#278));
#193=EDGE_LOOP('',(#279,#280,#281,#282));
#194=AXIS2_PLACEMENT_3D('',#283,#284,#285);
#195=SURFACE_SIDE_STYLE('',(#286));
#196=EDGE_LOOP('',(#287,#288));
#197=AXIS2_PLACEMENT_3D('',#289,#290,#291);
#198=SURFACE_SIDE_STYLE('',(#292));
#199=EDGE_LOOP('',(#293,#294,#295,#296));
#200=AXIS2_PLACEMENT_3D('',#297,#298,#299);
#201=SURFACE_SIDE_STYLE('',(#300));
#202=EDGE_LOOP('',(#301,#302,#303,#304));
#203=AXIS2_PLACEMENT_3D('',#305,#306,#307);
#204=SURFACE_SIDE_STYLE('',(#308));
#205=EDGE_LOOP('',(#309,#310,#311,#312));
#206=AXIS2_PLACEMENT_3D('',#313,#314,#315);
#207=SURFACE_SIDE_STYLE('',(#316));
#208=EDGE_LOOP('',(#317,#318,#319,#320));
#209=AXIS2_PLACEMENT_3D('',#321,#322,#323);
#210=SURFACE_SIDE_STYLE('',(#324));
#211=EDGE_LOOP('',(#325,#326));
#212=AXIS2_PLACEMENT_3D('',#327,#328,#329);
#214=LINE('',#330,#331);
#215=LINE('',#332,#333);
#216=SURFACE_STYLE_FILL_AREA(#334);
#217=ORIENTED_EDGE('',*,*,#335,.F.);
#218=ORIENTED_EDGE('',*,*,#336,.T.);
#219=ORIENTED_EDGE('',*,*,#337,.T.);
#220=CARTESIAN_POINT('',(1.23000747988442E-15,0.0,-20.0875465602131));
#221=DIRECTION('',(1.0,0.0,6.12323399573677E-17));
#222=DIRECTION('',(6.12323399573677E-17,0.0,-1.0));
#223=SURFACE_STYLE_FILL_AREA(#338);
#224=ORIENTED_EDGE('',*,*,#339,.F.);
#225=ORIENTED_EDGE('',*,*,#340,.T.);
#226=ORIENTED_EDGE('',*,*,#341,.F.);
#227=ORIENTED_EDGE('',*,*,#342,.F.);
#228=ORIENTED_EDGE('',*,*,#337,.F.);
#229=CARTESIAN_POINT('',(1.12897411895477E-15,0.0,-18.4375465602131));
#230=DIRECTION('',(6.12323399573677E-17,0.0,-1.0));
#231=DIRECTION('',(0.0,1.0,0.0));
#232=SURFACE_STYLE_FILL_AREA(#343);
#233=ORIENTED_EDGE('',*,*,#340,.F.);
#234=ORIENTED_EDGE('',*,*,#344,.F.);
#235=CARTESIAN_POINT('',(1.02794075802511E-15,1.25,-16.7875465602132));
#236=DIRECTION('',(-6.12323399573677E-17,0.0,1.0));
#237=DIRECTION('',(0.0,-1.0,0.0));
#238=SURFACE_STYLE_FILL_AREA(#345);
#239=ORIENTED_EDGE('',*,*,#339,.T.);
#240=ORIENTED_EDGE('',*,*,#336,.F.);
#241=ORIENTED_EDGE('',*,*,#346,.F.);
#242=ORIENTED_EDGE('',*,*,#341,.T.);
#243=ORIENTED_EDGE('',*,*,#344,.T.);
#244=CARTESIAN_POINT('',(1.12897411895477E-15,0.0,-18.4375465602131));
#245=DIRECTION('',(6.12323399573677E-17,0.0,-1.0));
#246=DIRECTION('',(0.0,1.0,0.0));
#247=SURFACE_STYLE_FILL_AREA(#347);
#248=ORIENTED_EDGE('',*,*,#335,.T.);
#249=ORIENTED_EDGE('',*,*,#342,.T.);
#250=ORIENTED_EDGE('',*,*,#346,.T.);
#251=CARTESIAN_POINT('',(1.23000747988442E-15,0.0,-20.0875465602131));
#252=DIRECTION('',(1.0,0.0,6.12323399573677E-17));
#253=DIRECTION('',(6.12323399573677E-17,0.0,-1.0));
#254=SURFACE_STYLE_FILL_AREA(#348);
#255=ORIENTED_EDGE('',*,*,#349,.F.);
#256=ORIENTED_EDGE('',*,*,#350,.T.);
#257=ORIENTED_EDGE('',*,*,#351,.F.);
#258=ORIENTED_EDGE('',*,*,#352,.F.);
#259=CARTESIAN_POINT('',(5.93191144327799E-16,0.0,-9.68754656021315));
#260=DIRECTION('',(6.12323399573676E-17,0.0,-1.0));
#261=DIRECTION('',(0.0,1.0,0.0));
#262=SURFACE_STYLE_FILL_AREA(#353);
#263=ORIENTED_EDGE('',*,*,#354,.F.);
#264=ORIENTED_EDGE('',*,*,#355,.T.);
#265=ORIENTED_EDGE('',*,*,#356,.F.);
#266=ORIENTED_EDGE('',*,*,#350,.F.);
#267=CARTESIAN_POINT('',(7.92207653152442E-17,0.0,-1.29377328010657));
#268=DIRECTION('',(-6.12323399573677E-17,-0.0,1.0));
#269=DIRECTION('',(0.0,1.0,0.0));
#270=SURFACE_STYLE_FILL_AREA(#357);
#271=ORIENTED_EDGE('',*,*,#358,.F.);
#272=ORIENTED_EDGE('',*,*,#359,.T.);
#273=ORIENTED_EDGE('',*,*,#360,.F.);
#274=ORIENTED_EDGE('',*,*,#355,.F.);
#275=CARTESIAN_POINT('',(-1.13011794884277E-15,0.0,18.4562267198934));
#276=DIRECTION('',(6.12323399573676E-17,0.0,-1.0));
#277=DIRECTION('',(0.0,1.0,0.0));
#278=SURFACE_STYLE_FILL_AREA(#361);
#279=ORIENTED_EDGE('',*,*,#362,.F.);
#280=ORIENTED_EDGE('',*,*,#363,.T.);
#281=ORIENTED_EDGE('',*,*,#364,.F.);
#282=ORIENTED_EDGE('',*,*,#359,.F.);
#283=CARTESIAN_POINT('',(-2.27554398267488E-15,0.0,37.1624534397869));
#284=DIRECTION('',(6.12323399573677E-17,-0.0,-1.0));
#285=DIRECTION('',(0.0,1.0,0.0));
#286=SURFACE_STYLE_FILL_AREA(#365);
#287=ORIENTED_EDGE('',*,*,#363,.F.);
#288=ORIENTED_EDGE('',*,*,#366,.F.);
#289=CARTESIAN_POINT('',(-2.29085206766422E-15,1.25,37.4124534397869));
#290=DIRECTION('',(-6.12323399573677E-17,0.0,1.0));
#291=DIRECTION('',(0.0,-1.0,0.0));
#292=SURFACE_STYLE_FILL_AREA(#367);
#293=ORIENTED_EDGE('',*,*,#362,.T.);
#294=ORIENTED_EDGE('',*,*,#368,.F.);
#295=ORIENTED_EDGE('',*,*,#364,.T.);
#296=ORIENTED_EDGE('',*,*,#366,.T.);
#297=CARTESIAN_POINT('',(-2.27554398267488E-15,0.0,37.1624534397869));
#298=DIRECTION('',(6.12323399573677E-17,-0.0,-1.0));
#299=DIRECTION('',(0.0,1.0,0.0));
#300=SURFACE_STYLE_FILL_AREA(#369);
#301=ORIENTED_EDGE('',*,*,#358,.T.);
#302=ORIENTED_EDGE('',*,*,#370,.F.);
#303=ORIENTED_EDGE('',*,*,#360,.T.);
#304=ORIENTED_EDGE('',*,*,#368,.T.);
#305=CARTESIAN_POINT('',(-1.13011794884277E-15,0.0,18.4562267198934));
#306=DIRECTION('',(6.12323399573676E-17,0.0,-1.0));
#307=DIRECTION('',(0.0,1.0,0.0));
#308=SURFACE_STYLE_FILL_AREA(#371);
#309=ORIENTED_EDGE('',*,*,#354,.T.);
#310=ORIENTED_EDGE('',*,*,#372,.F.);
#311=ORIENTED_EDGE('',*,*,#356,.T.);
#312=ORIENTED_EDGE('',*,*,#370,.T.);
#313=CARTESIAN_POINT('',(7.92207653152442E-17,0.0,-1.29377328010657));
#314=DIRECTION('',(-6.12323399573677E-17,-0.0,1.0));
#315=DIRECTION('',(0.0,1.0,0.0));
#316=SURFACE_STYLE_FILL_AREA(#373);
#317=ORIENTED_EDGE('',*,*,#349,.T.);
#318=ORIENTED_EDGE('',*,*,#374,.F.);
#319=ORIENTED_EDGE('',*,*,#351,.T.);
#320=ORIENTED_EDGE('',*,*,#372,.T.);
#321=CARTESIAN_POINT('',(5.93191144327799E-16,0.0,-9.68754656021315));
#322=DIRECTION('',(6.12323399573676E-17,0.0,-1.0));
#323=DIRECTION('',(0.0,1.0,0.0));
#324=SURFACE_STYLE_FILL_AREA(#375);
#325=ORIENTED_EDGE('',*,*,#352,.T.);
#326=ORIENTED_EDGE('',*,*,#374,.T.);
#327=CARTESIAN_POINT('',(1.02794075802511E-15,1.225,-16.7875465602132));
#328=DIRECTION('',(6.12323399573677E-17,0.0,-1.0));
#329=DIRECTION('',(0.0,1.0,0.0));
#330=CARTESIAN_POINT('',(0.0,3.0,0.0));
#331=VECTOR('',#376,1.0);
#332=CARTESIAN_POINT('',(0.0,-3.0,0.0));
#333=VECTOR('',#377,1.0);
#334=FILL_AREA_STYLE('',(#378));
#335=EDGE_CURVE('',#379,#380,#381,.T.);
#336=EDGE_CURVE('',#379,#382,#383,.T.);
#337=EDGE_CURVE('',#382,#380,#384,.T.);
#338=FILL_AREA_STYLE('',(#385));
#339=EDGE_CURVE('',#386,#382,#387,.T.);
#340=EDGE_CURVE('',#386,#388,#389,.T.);
#341=EDGE_CURVE('',#390,#388,#391,.T.);
#342=EDGE_CURVE('',#380,#390,#392,.T.);
#343=FILL_AREA_STYLE('',(#393));
#344=EDGE_CURVE('',#388,#386,#394,.T.);
#345=FILL_AREA_STYLE('',(#395));
#346=EDGE_CURVE('',#390,#379,#396,.T.);
#347=FILL_AREA_STYLE('',(#397));
#348=FILL_AREA_STYLE('',(#398));
#349=EDGE_CURVE('',#399,#400,#401,.T.);
#350=EDGE_CURVE('',#399,#402,#403,.T.);
#351=EDGE_CURVE('',#404,#402,#405,.T.);
#352=EDGE_CURVE('',#400,#404,#406,.T.);
#353=FILL_AREA_STYLE('',(#407));
#354=EDGE_CURVE('',#408,#399,#409,.T.);
#355=EDGE_CURVE('',#408,#410,#411,.T.);
#356=EDGE_CURVE('',#402,#410,#412,.T.);
#357=FILL_AREA_STYLE('',(#413));
#358=EDGE_CURVE('',#414,#408,#415,.T.);
#359=EDGE_CURVE('',#414,#416,#417,.T.);
#360=EDGE_CURVE('',#410,#416,#418,.T.);
#361=FILL_AREA_STYLE('',(#419));
#362=EDGE_CURVE('',#420,#414,#421,.T.);
#363=EDGE_CURVE('',#420,#422,#423,.T.);
#364=EDGE_CURVE('',#416,#422,#424,.T.);
#365=FILL_AREA_STYLE('',(#425));
#366=EDGE_CURVE('',#422,#420,#426,.T.);
#367=FILL_AREA_STYLE('',(#427));
#368=EDGE_CURVE('',#416,#414,#428,.T.);
#369=FILL_AREA_STYLE('',(#429));
#370=EDGE_CURVE('',#410,#408,#430,.T.);
#371=FILL_AREA_STYLE('',(#431));
#372=EDGE_CURVE('',#402,#399,#432,.T.);
#373=FILL_AREA_STYLE('',(#433));
#374=EDGE_CURVE('',#404,#400,#434,.T.);
#375=FILL_AREA_STYLE('',(#435));
#376=DIRECTION('',(0.0,-1.0,0.0));
#377=DIRECTION('',(0.0,1.0,0.0));
#378=FILL_AREA_STYLE_COLOUR('',#436);
#379=VERTEX_POINT('',#437);
#380=VERTEX_POINT('',#438);
#381=CIRCLE('',#439,2.5);
#382=VERTEX_POINT('',#440);
#383=CIRCLE('',#441,2.5);
#384=CIRCLE('',#442,2.5);
#385=FILL_AREA_STYLE_COLOUR('',#443);
#386=VERTEX_POINT('',#444);
#387=LINE('',#445,#446);
#388=VERTEX_POINT('',#447);
#389=CIRCLE('',#448,2.5);
#390=VERTEX_POINT('',#449);
#391=LINE('',#450,#451);
#392=CIRCLE('',#452,2.5);
#393=FILL_AREA_STYLE_COLOUR('',#453);
#394=CIRCLE('',#454,2.5);
#395=FILL_AREA_STYLE_COLOUR('',#455);
#396=CIRCLE('',#456,2.5);
#397=FILL_AREA_STYLE_COLOUR('',#457);
#398=FILL_AREA_STYLE_COLOUR('',#458);
#399=VERTEX_POINT('',#459);
#400=VERTEX_POINT('',#460);
#401=LINE('',#461,#462);
#402=VERTEX_POINT('',#463);
#403=CIRCLE('',#464,2.45);
#404=VERTEX_POINT('',#465);
#405=LINE('',#466,#467);
#406=CIRCLE('',#468,2.45);
#407=FILL_AREA_STYLE_COLOUR('',#469);
#408=VERTEX_POINT('',#470);
#409=LINE('',#471,#472);
#410=VERTEX_POINT('',#473);
#411=CIRCLE('',#474,3.0);
#412=LINE('',#475,#476);
#413=FILL_AREA_STYLE_COLOUR('',#477);
#414=VERTEX_POINT('',#478);
#415=LINE('',#479,#480);
#416=VERTEX_POINT('',#481);
#417=CIRCLE('',#482,3.0);
#418=LINE('',#483,#484);
#419=FILL_AREA_STYLE_COLOUR('',#485);
#420=VERTEX_POINT('',#486);
#421=LINE('',#487,#488);
#422=VERTEX_POINT('',#489);
#423=CIRCLE('',#490,2.5);
#424=LINE('',#491,#492);
#425=FILL_AREA_STYLE_COLOUR('',#493);
#426=CIRCLE('',#494,2.5);
#427=FILL_AREA_STYLE_COLOUR('',#495);
#428=CIRCLE('',#496,3.0);
#429=FILL_AREA_STYLE_COLOUR('',#497);
#430=CIRCLE('',#498,3.0);
#431=FILL_AREA_STYLE_COLOUR('',#499);
#432=CIRCLE('',#500,2.45);
#433=FILL_AREA_STYLE_COLOUR('',#501);
#434=CIRCLE('',#502,2.45);
#435=FILL_AREA_STYLE_COLOUR('',#503);
#436=COLOUR_RGB('',0.800000011920929,0.800000011920929,0.800000011920929);
#437=CARTESIAN_POINT('',(-2.5,-3.83414149594242E-49,-20.0875465602131));
#438=CARTESIAN_POINT('',(2.5,-3.83414149594242E-49,-20.0875465602131));
#439=AXIS2_PLACEMENT_3D('',#504,#505,#506);
#440=CARTESIAN_POINT('',(1.23000747988442E-15,2.5,-20.0875465602131));
#441=AXIS2_PLACEMENT_3D('',#507,#508,#509);
#442=AXIS2_PLACEMENT_3D('',#510,#511,#512);
#443=COLOUR_RGB('',0.800000011920929,0.800000011920929,0.800000011920929);
#444=CARTESIAN_POINT('',(1.02794075802511E-15,2.5,-16.7875465602132));
#445=CARTESIAN_POINT('',(8.22812419167928E-16,2.5,-18.4375465602131));
#446=VECTOR('',#513,1.0);
#447=CARTESIAN_POINT('',(1.33410245781195E-15,-2.5,-16.7875465602132));
#448=AXIS2_PLACEMENT_3D('',#514,#515,#516);
#449=CARTESIAN_POINT('',(1.53616917967126E-15,-2.5,-20.0875465602131));
#450=CARTESIAN_POINT('',(1.4351358187416E-15,-2.5,-18.4375465602131));
#451=VECTOR('',#517,1.0);
#452=AXIS2_PLACEMENT_3D('',#518,#519,#520);
#453=COLOUR_RGB('',0.800000011920929,0.800000011920929,0.800000011920929);
#454=AXIS2_PLACEMENT_3D('',#521,#522,#523);
#455=COLOUR_RGB('',0.800000011920929,0.800000011920929,0.800000011920929);
#456=AXIS2_PLACEMENT_3D('',#524,#525,#526);
#457=COLOUR_RGB('',0.800000011920929,0.800000011920929,0.800000011920929);
#458=COLOUR_RGB('',0.498039215803146,0.498039215803146,0.498039215803146);
#459=CARTESIAN_POINT('',(1.58441530630489E-16,2.45,-2.58754656021315));
#460=CARTESIAN_POINT('',(1.02794075802511E-15,2.45,-16.7875465602132));
#461=CARTESIAN_POINT('',(2.93152678536698E-16,2.45,-9.68754656021315));
#462=VECTOR('',#527,1.0);
#463=CARTESIAN_POINT('',(4.5847999642159E-16,-2.45,-2.58754656021315));
#464=AXIS2_PLACEMENT_3D('',#528,#529,#530);
#465=CARTESIAN_POINT('',(1.32797922381621E-15,-2.45,-16.7875465602132));
#466=CARTESIAN_POINT('',(8.93229610118901E-16,-2.45,-9.68754656021315));
#467=VECTOR('',#531,1.0);
#468=AXIS2_PLACEMENT_3D('',#532,#533,#534);
#469=COLOUR_RGB('',0.498039215803146,0.498039215803146,0.498039215803146);
#470=CARTESIAN_POINT('',(0.0,3.0,0.0));
#471=CARTESIAN_POINT('',(-2.54495487452409E-16,2.725,-1.29377328010657));
#472=VECTOR('',#535,1.0);
#473=CARTESIAN_POINT('',(3.67394039744205E-16,-3.0,2.24963967399278E-32));
#474=AXIS2_PLACEMENT_3D('',#536,#537,#538);
#475=CARTESIAN_POINT('',(4.12937018082898E-16,-2.725,-1.29377328010657));
#476=VECTOR('',#539,1.0);
#477=COLOUR_RGB('',0.498039215803146,0.498039215803146,0.498039215803146);
#478=CARTESIAN_POINT('',(-2.26023589768553E-15,3.0,36.9124534397869));
#479=CARTESIAN_POINT('',(-1.49751198858697E-15,3.0,18.4562267198934));
#480=VECTOR('',#540,1.0);
#481=CARTESIAN_POINT('',(-1.89284185794133E-15,-3.0,36.9124534397869));
#482=AXIS2_PLACEMENT_3D('',#541,#542,#543);
#483=CARTESIAN_POINT('',(-7.62723909098561E-16,-3.0,18.4562267198934));
#484=VECTOR('',#544,1.0);
#485=COLOUR_RGB('',0.498039215803146,0.498039215803146,0.498039215803146);
#486=CARTESIAN_POINT('',(-2.29085206766422E-15,2.5,37.4124534397869));
#487=CARTESIAN_POINT('',(-2.6123218524404E-15,2.75,37.1624534397869));
#488=VECTOR('',#545,1.0);
#489=CARTESIAN_POINT('',(-1.98469036787738E-15,-2.5,37.4124534397869));
#490=AXIS2_PLACEMENT_3D('',#546,#547,#548);
#491=CARTESIAN_POINT('',(-1.93876611290935E-15,-2.75,37.1624534397869));
#492=VECTOR('',#549,1.0);
#493=COLOUR_RGB('',0.498039215803146,0.498039215803146,0.498039215803146);
#494=AXIS2_PLACEMENT_3D('',#550,#551,#552);
#495=COLOUR_RGB('',0.498039215803146,0.498039215803146,0.498039215803146);
#496=AXIS2_PLACEMENT_3D('',#553,#554,#555);
#497=COLOUR_RGB('',0.498039215803146,0.498039215803146,0.498039215803146);
#498=AXIS2_PLACEMENT_3D('',#556,#557,#558);
#499=COLOUR_RGB('',0.498039215803146,0.498039215803146,0.498039215803146);
#500=AXIS2_PLACEMENT_3D('',#559,#560,#561);
#501=COLOUR_RGB('',0.498039215803146,0.498039215803146,0.498039215803146);
#502=AXIS2_PLACEMENT_3D('',#562,#563,#564);
#503=COLOUR_RGB('',0.498039215803146,0.498039215803146,0.498039215803146);
#504=CARTESIAN_POINT('',(1.23000747988442E-15,0.0,-20.0875465602131));
#505=DIRECTION('',(-7.49879891330929E-33,-1.0,1.22464679914735E-16));
#506=DIRECTION('',(0.0,1.22464679914735E-16,1.0));
#507=CARTESIAN_POINT('',(1.23000747988442E-15,0.0,-20.0875465602131));
#508=DIRECTION('',(6.12323399573677E-17,0.0,-1.0));
#509=DIRECTION('',(0.0,1.0,0.0));
#510=CARTESIAN_POINT('',(1.23000747988442E-15,0.0,-20.0875465602131));
#511=DIRECTION('',(6.12323399573677E-17,0.0,-1.0));
#512=DIRECTION('',(0.0,1.0,0.0));
#513=DIRECTION('',(6.12323399573677E-17,0.0,-1.0));
#514=CARTESIAN_POINT('',(1.02794075802511E-15,0.0,-16.7875465602132));
#515=DIRECTION('',(6.12323399573677E-17,0.0,-1.0));
#516=DIRECTION('',(0.0,1.0,0.0));
#517=DIRECTION('',(-6.12323399573677E-17,-0.0,1.0));
#518=CARTESIAN_POINT('',(1.23000747988442E-15,0.0,-20.0875465602131));
#519=DIRECTION('',(6.12323399573677E-17,0.0,-1.0));
#520=DIRECTION('',(0.0,1.0,0.0));
#521=CARTESIAN_POINT('',(1.02794075802511E-15,0.0,-16.7875465602132));
#522=DIRECTION('',(6.12323399573677E-17,0.0,-1.0));
#523=DIRECTION('',(0.0,1.0,0.0));
#524=CARTESIAN_POINT('',(1.23000747988442E-15,0.0,-20.0875465602131));
#525=DIRECTION('',(6.12323399573677E-17,0.0,-1.0));
#526=DIRECTION('',(0.0,1.0,0.0));
#527=DIRECTION('',(6.12323399573676E-17,0.0,-1.0));
#528=CARTESIAN_POINT('',(1.58441530630489E-16,0.0,-2.58754656021315));
#529=DIRECTION('',(6.12323399573676E-17,0.0,-1.0));
#530=DIRECTION('',(0.0,1.0,0.0));
#531=DIRECTION('',(-6.12323399573676E-17,-0.0,1.0));
#532=CARTESIAN_POINT('',(1.02794075802511E-15,0.0,-16.7875465602132));
#533=DIRECTION('',(6.12323399573676E-17,0.0,-1.0));
#534=DIRECTION('',(0.0,1.0,0.0));
#535=DIRECTION('',(8.53561050831442E-17,-0.207911690817759,-0.978147600733806));
#536=CARTESIAN_POINT('',(0.0,0.0,0.0));
#537=DIRECTION('',(6.12323399573676E-17,0.0,-1.0));
#538=DIRECTION('',(0.0,1.0,0.0));
#539=DIRECTION('',(-3.44324277500876E-17,-0.207911690817759,0.978147600733806));
#540=DIRECTION('',(6.12323399573676E-17,0.0,-1.0));
#541=CARTESIAN_POINT('',(-2.26023589768553E-15,0.0,36.9124534397869));
#542=DIRECTION('',(6.12323399573676E-17,0.0,-1.0));
#543=DIRECTION('',(0.0,1.0,0.0));
#544=DIRECTION('',(-6.12323399573676E-17,-0.0,1.0));
#545=DIRECTION('',(-4.32978028117747E-17,0.707106781186548,-0.707106781186548));
#546=CARTESIAN_POINT('',(-2.29085206766422E-15,0.0,37.4124534397869));
#547=DIRECTION('',(6.12323399573677E-17,0.0,-1.0));
#548=DIRECTION('',(0.0,1.0,0.0));
#549=DIRECTION('',(-1.29893408435324E-16,0.707106781186548,0.707106781186548));
#550=CARTESIAN_POINT('',(-2.29085206766422E-15,0.0,37.4124534397869));
#551=DIRECTION('',(6.12323399573677E-17,0.0,-1.0));
#552=DIRECTION('',(0.0,1.0,0.0));
#553=CARTESIAN_POINT('',(-2.26023589768553E-15,0.0,36.9124534397869));
#554=DIRECTION('',(6.12323399573676E-17,0.0,-1.0));
#555=DIRECTION('',(0.0,1.0,0.0));
#556=CARTESIAN_POINT('',(0.0,0.0,0.0));
#557=DIRECTION('',(6.12323399573676E-17,0.0,-1.0));
#558=DIRECTION('',(0.0,1.0,0.0));
#559=CARTESIAN_POINT('',(1.58441530630489E-16,0.0,-2.58754656021315));
#560=DIRECTION('',(6.12323399573676E-17,0.0,-1.0));
#561=DIRECTION('',(0.0,1.0,0.0));
#562=CARTESIAN_POINT('',(1.02794075802511E-15,0.0,-16.7875465602132));
#563=DIRECTION('',(6.12323399573676E-17,0.0,-1.0));
#564=DIRECTION('',(0.0,1.0,0.0));
#565=DIRECTION('',(0.0,0.0,1.0));
#566=DIRECTION('',(1.0,0.0,0.0));
#567=CARTESIAN_POINT('',(0.0,0.0,37.412453));
#568=AXIS2_PLACEMENT_3D('PCS', #567,#565,#566);
#569=CARTESIAN_POINT('',(0.0,0.0,0.000000));
#570=AXIS2_PLACEMENT_3D('MCS', #569,#565,#566);
#571=CARTESIAN_POINT('',(0.0,0.0,-22.587547));
#572=AXIS2_PLACEMENT_3D('CIP', #571,#565,#566);
ENDSEC;
END-ISO-10303-21;
