ISO-10303-21;
HEADER;
FILE_DESCRIPTION(('STEP AP214'),'1');
FILE_NAME('31154990_ED1E43.stp','2024-07-05T10:50:42',(' '),(' '),'Spatial InterOp 3D',' ',' ');
FILE_SCHEMA(('AUTOMOTIVE_DESIGN { 1 0 10303 214 1 1 1 1 }'));
ENDSEC;
DATA;
#1=MECHANICAL_DESIGN_GEOMETRIC_PRESENTATION_REPRESENTATION(' ',(#12,#13,#14,#15,#16,#17,#18,#19,#20,#21,#22,#23,#24,#25),#8);
#2=PRODUCT_DEFINITION_CONTEXT('',#26,'design');
#3=APPLICATION_PROTOCOL_DEFINITION('INTERNATIONAL STANDARD','automotive_design',1994,#26);
#4=PRODUCT_CATEGORY_RELATIONSHIP('NONE','NONE',#27,#28);
#5=SHAPE_DEFINITION_REPRESENTATION(#29,#30);
#6=SHAPE_DEFINITION_REPRESENTATION(#29,#31);
#7=SHAPE_DEFINITION_REPRESENTATION(#29,#32);
#8= (GEOMETRIC_REPRESENTATION_CONTEXT(3)GLOBAL_UNCERTAINTY_ASSIGNED_CONTEXT((#35))GLOBAL_UNIT_ASSIGNED_CONTEXT((#37,#38,#39))REPRESENTATION_CONTEXT('NONE','WORKSPACE'));
#12=STYLED_ITEM('',(#41),#42);
#13=STYLED_ITEM('',(#43),#44);
#14=STYLED_ITEM('',(#45),#46);
#15=STYLED_ITEM('',(#47),#48);
#16=STYLED_ITEM('',(#49),#50);
#17=STYLED_ITEM('',(#51),#52);
#18=STYLED_ITEM('',(#53),#54);
#19=STYLED_ITEM('',(#55),#56);
#20=STYLED_ITEM('',(#57),#58);
#21=STYLED_ITEM('',(#59),#60);
#22=STYLED_ITEM('',(#61),#62);
#23=STYLED_ITEM('',(#63),#64);
#24=STYLED_ITEM('',(#65),#66);
#25=STYLED_ITEM('',(#67),#68);
#26=APPLICATION_CONTEXT(' ');
#27=PRODUCT_CATEGORY('part','NONE');
#28=PRODUCT_RELATED_PRODUCT_CATEGORY('detail',' ',(#69));
#29=PRODUCT_DEFINITION_SHAPE('NONE','NONE',#70);
#30=ADVANCED_BREP_SHAPE_REPRESENTATION('1',(#71,#72),#8);
#31=ADVANCED_BREP_SHAPE_REPRESENTATION('2',(#73,#74),#8);
#32=GEOMETRICALLY_BOUNDED_SURFACE_SHAPE_REPRESENTATION('3',(#75,#76),#8);
#35=UNCERTAINTY_MEASURE_WITH_UNIT(LENGTH_MEASURE(1.0E-06),#37,'','');
#37= (CONVERSION_BASED_UNIT('MILLIMETRE',#79)LENGTH_UNIT()NAMED_UNIT(#82));
#38= (NAMED_UNIT(#84)PLANE_ANGLE_UNIT()SI_UNIT($,.RADIAN.));
#39= (NAMED_UNIT(#84)SOLID_ANGLE_UNIT()SI_UNIT($,.STERADIAN.));
#41=PRESENTATION_STYLE_ASSIGNMENT((#90));
#42=COMPOSITE_CURVE('',(#91),.U.);
#43=PRESENTATION_STYLE_ASSIGNMENT((#92));
#44=COMPOSITE_CURVE('',(#93,#94,#95,#96,#97,#98),.U.);
#45=PRESENTATION_STYLE_ASSIGNMENT((#99));
#46=ADVANCED_FACE('',(#100),#101,.T.);
#47=PRESENTATION_STYLE_ASSIGNMENT((#102));
#48=ADVANCED_FACE('',(#103),#104,.T.);
#49=PRESENTATION_STYLE_ASSIGNMENT((#105));
#50=ADVANCED_FACE('',(#106),#107,.T.);
#51=PRESENTATION_STYLE_ASSIGNMENT((#108));
#52=ADVANCED_FACE('',(#109),#110,.T.);
#53=PRESENTATION_STYLE_ASSIGNMENT((#111));
#54=ADVANCED_FACE('',(#112),#113,.T.);
#55=PRESENTATION_STYLE_ASSIGNMENT((#114));
#56=ADVANCED_FACE('',(#115),#116,.T.);
#57=PRESENTATION_STYLE_ASSIGNMENT((#117));
#58=COMPOSITE_CURVE('',(#118,#119,#120,#121),.U.);
#59=PRESENTATION_STYLE_ASSIGNMENT((#122));
#60=ADVANCED_FACE('',(#123),#124,.T.);
#61=PRESENTATION_STYLE_ASSIGNMENT((#125));
#62=ADVANCED_FACE('',(#126),#127,.T.);
#63=PRESENTATION_STYLE_ASSIGNMENT((#128));
#64=ADVANCED_FACE('',(#129),#130,.T.);
#65=PRESENTATION_STYLE_ASSIGNMENT((#131));
#66=ADVANCED_FACE('',(#132),#133,.T.);
#67=PRESENTATION_STYLE_ASSIGNMENT((#134));
#68=ADVANCED_FACE('',(#135),#136,.T.);
#69=PRODUCT('1','','PART--DESC',(#137));
#70=PRODUCT_DEFINITION('','NONE',#138,#2);
#71=MANIFOLD_SOLID_BREP('1',#139);
#72=AXIS2_PLACEMENT_3D('',#140,#141,#142);
#73=MANIFOLD_SOLID_BREP('2',#143);
#74=AXIS2_PLACEMENT_3D('',#144,#145,#146);
#75=GEOMETRIC_SET('3',(#42,#44,#58));
#76=AXIS2_PLACEMENT_3D('',#147,#148,#149);
#79=LENGTH_MEASURE_WITH_UNIT(LENGTH_MEASURE(1.0),#150);
#82=DIMENSIONAL_EXPONENTS(1.0,0.0,0.0,0.0,0.0,0.0,0.0);
#84=DIMENSIONAL_EXPONENTS(0.0,0.0,0.0,0.0,0.0,0.0,0.0);
#90=CURVE_STYLE('',#151,POSITIVE_LENGTH_MEASURE(1.0E-06),#152);
#91=COMPOSITE_CURVE_SEGMENT(.CONTINUOUS.,.T.,#153);
#92=CURVE_STYLE('',#154,POSITIVE_LENGTH_MEASURE(1.0E-06),#155);
#93=COMPOSITE_CURVE_SEGMENT(.CONTINUOUS.,.T.,#156);
#94=COMPOSITE_CURVE_SEGMENT(.CONTINUOUS.,.T.,#157);
#95=COMPOSITE_CURVE_SEGMENT(.CONTINUOUS.,.T.,#158);
#96=COMPOSITE_CURVE_SEGMENT(.CONTINUOUS.,.T.,#159);
#97=COMPOSITE_CURVE_SEGMENT(.CONTINUOUS.,.T.,#160);
#98=COMPOSITE_CURVE_SEGMENT(.CONTINUOUS.,.T.,#161);
#99=SURFACE_STYLE_USAGE(.BOTH.,#162);
#100=FACE_OUTER_BOUND('',#163,.T.);
#101=CYLINDRICAL_SURFACE('',#164,3.00000000000021);
#102=SURFACE_STYLE_USAGE(.BOTH.,#165);
#103=FACE_OUTER_BOUND('',#166,.T.);
#104=CONICAL_SURFACE('',#167,2.76000000000022,0.785398163397922);
#105=SURFACE_STYLE_USAGE(.BOTH.,#168);
#106=FACE_OUTER_BOUND('',#169,.T.);
#107=PLANE('',#170);
#108=SURFACE_STYLE_USAGE(.BOTH.,#171);
#109=FACE_OUTER_BOUND('',#172,.T.);
#110=PLANE('',#173);
#111=SURFACE_STYLE_USAGE(.BOTH.,#174);
#112=FACE_OUTER_BOUND('',#175,.T.);
#113=CONICAL_SURFACE('',#176,2.76000000000022,0.785398163397922);
#114=SURFACE_STYLE_USAGE(.BOTH.,#177);
#115=FACE_OUTER_BOUND('',#178,.T.);
#116=CYLINDRICAL_SURFACE('',#179,3.00000000000021);
#117=CURVE_STYLE('',#180,POSITIVE_LENGTH_MEASURE(1.0E-06),#181);
#118=COMPOSITE_CURVE_SEGMENT(.CONTINUOUS.,.T.,#182);
#119=COMPOSITE_CURVE_SEGMENT(.CONTINUOUS.,.T.,#183);
#120=COMPOSITE_CURVE_SEGMENT(.CONTINUOUS.,.T.,#184);
#121=COMPOSITE_CURVE_SEGMENT(.CONTINUOUS.,.T.,#185);
#122=SURFACE_STYLE_USAGE(.BOTH.,#186);
#123=FACE_OUTER_BOUND('',#187,.T.);
#124=SPHERICAL_SURFACE('',#188,3.0);
#125=SURFACE_STYLE_USAGE(.BOTH.,#189);
#126=FACE_OUTER_BOUND('',#190,.T.);
#127=CYLINDRICAL_SURFACE('',#191,3.0000000000001);
#128=SURFACE_STYLE_USAGE(.BOTH.,#192);
#129=FACE_OUTER_BOUND('',#193,.T.);
#130=PLANE('',#194);
#131=SURFACE_STYLE_USAGE(.BOTH.,#195);
#132=FACE_OUTER_BOUND('',#196,.T.);
#133=CYLINDRICAL_SURFACE('',#197,3.0000000000001);
#134=SURFACE_STYLE_USAGE(.BOTH.,#198);
#135=FACE_OUTER_BOUND('',#199,.T.);
#136=SPHERICAL_SURFACE('',#200,3.0);
#137=PRODUCT_CONTEXT('',#26,'mechanical');
#138=PRODUCT_DEFINITION_FORMATION_WITH_SPECIFIED_SOURCE(' ','NONE',#69,.NOT_KNOWN.);
#139=CLOSED_SHELL('',(#46,#48,#50,#52,#54,#56));
#140=CARTESIAN_POINT('',(0.0,0.0,0.0));
#141=DIRECTION('',(0.0,0.0,1.0));
#142=DIRECTION('',(1.0,0.0,0.0));
#143=CLOSED_SHELL('',(#60,#62,#64,#66,#68));
#144=CARTESIAN_POINT('',(0.0,0.0,0.0));
#145=DIRECTION('',(0.0,0.0,1.0));
#146=DIRECTION('',(1.0,0.0,0.0));
#147=CARTESIAN_POINT('',(0.0,0.0,0.0));
#148=DIRECTION('',(0.0,0.0,1.0));
#149=DIRECTION('',(1.0,0.0,0.0));
#150= (NAMED_UNIT(#82)LENGTH_UNIT()SI_UNIT(.MILLI.,.METRE.));
#151=DRAUGHTING_PRE_DEFINED_CURVE_FONT('continuous');
#152=COLOUR_RGB('',0.0,1.0,0.0);
#153=TRIMMED_CURVE('',#202,(PARAMETER_VALUE(0.0)),(PARAMETER_VALUE(3.00000000000023)),.T.,.UNSPECIFIED.);
#154=DRAUGHTING_PRE_DEFINED_CURVE_FONT('continuous');
#155=COLOUR_RGB('',0.498039215803146,0.498039215803146,0.498039215803146);
#156=TRIMMED_CURVE('',#203,(PARAMETER_VALUE(0.0)),(PARAMETER_VALUE(38.5200000000004)),.T.,.UNSPECIFIED.);
#157=TRIMMED_CURVE('',#204,(PARAMETER_VALUE(0.0)),(PARAMETER_VALUE(0.67882250993879)),.T.,.UNSPECIFIED.);
#158=TRIMMED_CURVE('',#205,(PARAMETER_VALUE(0.0)),(PARAMETER_VALUE(2.52000000000021)),.T.,.UNSPECIFIED.);
#159=TRIMMED_CURVE('',#206,(PARAMETER_VALUE(0.0)),(PARAMETER_VALUE(40.0)),.T.,.UNSPECIFIED.);
#160=TRIMMED_CURVE('',#207,(PARAMETER_VALUE(0.0)),(PARAMETER_VALUE(3.0000000000002)),.T.,.UNSPECIFIED.);
#161=TRIMMED_CURVE('',#208,(PARAMETER_VALUE(0.0)),(PARAMETER_VALUE(1.0)),.T.,.UNSPECIFIED.);
#162=SURFACE_SIDE_STYLE('',(#209));
#163=EDGE_LOOP('',(#210,#211,#212,#213));
#164=AXIS2_PLACEMENT_3D('',#214,#215,#216);
#165=SURFACE_SIDE_STYLE('',(#217));
#166=EDGE_LOOP('',(#218,#219,#220,#221));
#167=AXIS2_PLACEMENT_3D('',#222,#223,#224);
#168=SURFACE_SIDE_STYLE('',(#225));
#169=EDGE_LOOP('',(#226,#227));
#170=AXIS2_PLACEMENT_3D('',#228,#229,#230);
#171=SURFACE_SIDE_STYLE('',(#231));
#172=EDGE_LOOP('',(#232,#233));
#173=AXIS2_PLACEMENT_3D('',#234,#235,#236);
#174=SURFACE_SIDE_STYLE('',(#237));
#175=EDGE_LOOP('',(#238,#239,#240,#241));
#176=AXIS2_PLACEMENT_3D('',#242,#243,#244);
#177=SURFACE_SIDE_STYLE('',(#245));
#178=EDGE_LOOP('',(#246,#247,#248,#249));
#179=AXIS2_PLACEMENT_3D('',#250,#251,#252);
#180=DRAUGHTING_PRE_DEFINED_CURVE_FONT('continuous');
#181=COLOUR_RGB('',0.0,0.0,1.0);
#182=TRIMMED_CURVE('',#253,(PARAMETER_VALUE(-0.785398163397439)),(PARAMETER_VALUE(0.785398163397439)),.T.,.UNSPECIFIED.);
#183=TRIMMED_CURVE('',#254,(PARAMETER_VALUE(0.0)),(PARAMETER_VALUE(14.0000000000001)),.T.,.UNSPECIFIED.);
#184=TRIMMED_CURVE('',#255,(PARAMETER_VALUE(0.0)),(PARAMETER_VALUE(3.0000000000002)),.T.,.UNSPECIFIED.);
#185=TRIMMED_CURVE('',#256,(PARAMETER_VALUE(0.0)),(PARAMETER_VALUE(17.0)),.T.,.UNSPECIFIED.);
#186=SURFACE_SIDE_STYLE('',(#257));
#187=EDGE_LOOP('',(#258,#259,#260));
#188=AXIS2_PLACEMENT_3D('',#261,#262,#263);
#189=SURFACE_SIDE_STYLE('',(#264));
#190=EDGE_LOOP('',(#265,#266,#267,#268,#269));
#191=AXIS2_PLACEMENT_3D('',#270,#271,#272);
#192=SURFACE_SIDE_STYLE('',(#273));
#193=EDGE_LOOP('',(#274,#275));
#194=AXIS2_PLACEMENT_3D('',#276,#277,#278);
#195=SURFACE_SIDE_STYLE('',(#279));
#196=EDGE_LOOP('',(#280,#281,#282,#283,#284));
#197=AXIS2_PLACEMENT_3D('',#285,#286,#287);
#198=SURFACE_SIDE_STYLE('',(#288));
#199=EDGE_LOOP('',(#289,#290,#291));
#200=AXIS2_PLACEMENT_3D('',#292,#293,#294);
#202=LINE('',#295,#296);
#203=LINE('',#297,#298);
#204=LINE('',#299,#300);
#205=LINE('',#301,#302);
#206=LINE('',#303,#304);
#207=LINE('',#305,#306);
#208=LINE('',#307,#308);
#209=SURFACE_STYLE_FILL_AREA(#309);
#210=ORIENTED_EDGE('',*,*,#310,.F.);
#211=ORIENTED_EDGE('',*,*,#311,.T.);
#212=ORIENTED_EDGE('',*,*,#312,.F.);
#213=ORIENTED_EDGE('',*,*,#313,.F.);
#214=CARTESIAN_POINT('',(-9.65021677728128E-16,0.0,15.7600000000002));
#215=DIRECTION('',(6.12323399573677E-17,0.0,-1.0));
#216=DIRECTION('',(0.0,1.0,0.0));
#217=SURFACE_STYLE_FILL_AREA(#314);
#218=ORIENTED_EDGE('',*,*,#315,.F.);
#219=ORIENTED_EDGE('',*,*,#316,.T.);
#220=ORIENTED_EDGE('',*,*,#317,.F.);
#221=ORIENTED_EDGE('',*,*,#311,.F.);
#222=CARTESIAN_POINT('',(-2.18966847687548E-15,0.0,35.7600000000002));
#223=DIRECTION('',(6.12323399573677E-17,-0.0,-1.0));
#224=DIRECTION('',(0.0,1.0,0.0));
#225=SURFACE_STYLE_FILL_AREA(#318);
#226=ORIENTED_EDGE('',*,*,#313,.T.);
#227=ORIENTED_EDGE('',*,*,#319,.T.);
#228=CARTESIAN_POINT('',(2.44929359829471E-16,1.5000000000001,-4.0));
#229=DIRECTION('',(6.12323399573677E-17,0.0,-1.0));
#230=DIRECTION('',(0.0,1.0,0.0));
#231=SURFACE_STYLE_FILL_AREA(#320);
#232=ORIENTED_EDGE('',*,*,#316,.F.);
#233=ORIENTED_EDGE('',*,*,#321,.F.);
#234=CARTESIAN_POINT('',(-2.20436423846524E-15,1.2600000000001,36.0));
#235=DIRECTION('',(-6.12323399573677E-17,0.0,1.0));
#236=DIRECTION('',(0.0,-1.0,0.0));
#237=SURFACE_STYLE_FILL_AREA(#322);
#238=ORIENTED_EDGE('',*,*,#315,.T.);
#239=ORIENTED_EDGE('',*,*,#323,.F.);
#240=ORIENTED_EDGE('',*,*,#317,.T.);
#241=ORIENTED_EDGE('',*,*,#321,.T.);
#242=CARTESIAN_POINT('',(-2.18966847687548E-15,0.0,35.7600000000002));
#243=DIRECTION('',(6.12323399573677E-17,-0.0,-1.0));
#244=DIRECTION('',(0.0,1.0,0.0));
#245=SURFACE_STYLE_FILL_AREA(#324);
#246=ORIENTED_EDGE('',*,*,#310,.T.);
#247=ORIENTED_EDGE('',*,*,#319,.F.);
#248=ORIENTED_EDGE('',*,*,#312,.T.);
#249=ORIENTED_EDGE('',*,*,#323,.T.);
#250=CARTESIAN_POINT('',(-9.65021677728128E-16,0.0,15.7600000000002));
#251=DIRECTION('',(6.12323399573677E-17,0.0,-1.0));
#252=DIRECTION('',(0.0,1.0,0.0));
#253=CIRCLE('',#325,3.0);
#254=LINE('',#326,#327);
#255=LINE('',#328,#329);
#256=LINE('',#330,#331);
#257=SURFACE_STYLE_FILL_AREA(#332);
#258=ORIENTED_EDGE('',*,*,#333,.F.);
#259=ORIENTED_EDGE('',*,*,#334,.T.);
#260=ORIENTED_EDGE('',*,*,#335,.T.);
#261=CARTESIAN_POINT('',(1.10218211923262E-15,0.0,-18.0));
#262=DIRECTION('',(1.0,0.0,6.12323399573677E-17));
#263=DIRECTION('',(6.12323399573677E-17,0.0,-1.0));
#264=SURFACE_STYLE_FILL_AREA(#336);
#265=ORIENTED_EDGE('',*,*,#337,.F.);
#266=ORIENTED_EDGE('',*,*,#338,.T.);
#267=ORIENTED_EDGE('',*,*,#339,.F.);
#268=ORIENTED_EDGE('',*,*,#340,.F.);
#269=ORIENTED_EDGE('',*,*,#335,.F.);
#270=CARTESIAN_POINT('',(6.73555739531046E-16,0.0,-11.0));
#271=DIRECTION('',(6.12323399573677E-17,0.0,-1.0));
#272=DIRECTION('',(0.0,1.0,0.0));
#273=SURFACE_STYLE_FILL_AREA(#341);
#274=ORIENTED_EDGE('',*,*,#338,.F.);
#275=ORIENTED_EDGE('',*,*,#342,.F.);
#276=CARTESIAN_POINT('',(2.44929359829471E-16,1.5000000000001,-4.0));
#277=DIRECTION('',(-6.12323399573677E-17,0.0,1.0));
#278=DIRECTION('',(0.0,-1.0,0.0));
#279=SURFACE_STYLE_FILL_AREA(#343);
#280=ORIENTED_EDGE('',*,*,#337,.T.);
#281=ORIENTED_EDGE('',*,*,#334,.F.);
#282=ORIENTED_EDGE('',*,*,#344,.F.);
#283=ORIENTED_EDGE('',*,*,#339,.T.);
#284=ORIENTED_EDGE('',*,*,#342,.T.);
#285=CARTESIAN_POINT('',(6.73555739531046E-16,0.0,-11.0));
#286=DIRECTION('',(6.12323399573677E-17,0.0,-1.0));
#287=DIRECTION('',(0.0,1.0,0.0));
#288=SURFACE_STYLE_FILL_AREA(#345);
#289=ORIENTED_EDGE('',*,*,#333,.T.);
#290=ORIENTED_EDGE('',*,*,#340,.T.);
#291=ORIENTED_EDGE('',*,*,#344,.T.);
#292=CARTESIAN_POINT('',(1.10218211923262E-15,0.0,-18.0));
#293=DIRECTION('',(1.0,0.0,6.12323399573677E-17));
#294=DIRECTION('',(6.12323399573677E-17,0.0,-1.0));
#295=CARTESIAN_POINT('',(0.0,3.00000000000023,0.0));
#296=VECTOR('',#346,1.0);
#297=CARTESIAN_POINT('',(1.83697019872103E-16,3.00000000000023,-3.0));
#298=VECTOR('',#347,1.0);
#299=CARTESIAN_POINT('',(-2.17497271528573E-15,3.00000000000023,35.5200000000004));
#300=VECTOR('',#348,1.0);
#301=CARTESIAN_POINT('',(-2.20436423846524E-15,2.52000000000021,36.0));
#302=VECTOR('',#349,1.0);
#303=CARTESIAN_POINT('',(-2.20436423846524E-15,0.0,36.0));
#304=VECTOR('',#350,1.0);
#305=CARTESIAN_POINT('',(2.44929359829471E-16,0.0,-4.0));
#306=VECTOR('',#351,1.0);
#307=CARTESIAN_POINT('',(2.44929359829471E-16,3.0000000000002,-4.0));
#308=VECTOR('',#352,1.0);
#309=FILL_AREA_STYLE('',(#353));
#310=EDGE_CURVE('',#354,#355,#356,.T.);
#311=EDGE_CURVE('',#354,#357,#358,.T.);
#312=EDGE_CURVE('',#359,#357,#360,.T.);
#313=EDGE_CURVE('',#355,#359,#361,.T.);
#314=FILL_AREA_STYLE('',(#362));
#315=EDGE_CURVE('',#363,#354,#364,.T.);
#316=EDGE_CURVE('',#363,#365,#366,.T.);
#317=EDGE_CURVE('',#357,#365,#367,.T.);
#318=FILL_AREA_STYLE('',(#368));
#319=EDGE_CURVE('',#359,#355,#369,.T.);
#320=FILL_AREA_STYLE('',(#370));
#321=EDGE_CURVE('',#365,#363,#371,.T.);
#322=FILL_AREA_STYLE('',(#372));
#323=EDGE_CURVE('',#357,#354,#373,.T.);
#324=FILL_AREA_STYLE('',(#374));
#325=AXIS2_PLACEMENT_3D('',#375,#376,#377);
#326=CARTESIAN_POINT('',(1.10218211923262E-15,3.0,-18.0000000000001));
#327=VECTOR('',#378,1.0);
#328=CARTESIAN_POINT('',(2.44929359829471E-16,3.0000000000002,-4.0));
#329=VECTOR('',#379,1.0);
#330=CARTESIAN_POINT('',(2.44929359829471E-16,0.0,-4.0));
#331=VECTOR('',#380,1.0);
#332=FILL_AREA_STYLE('',(#381));
#333=EDGE_CURVE('',#382,#383,#384,.T.);
#334=EDGE_CURVE('',#382,#385,#386,.T.);
#335=EDGE_CURVE('',#385,#383,#387,.T.);
#336=FILL_AREA_STYLE('',(#388));
#337=EDGE_CURVE('',#389,#385,#390,.T.);
#338=EDGE_CURVE('',#389,#391,#392,.T.);
#339=EDGE_CURVE('',#393,#391,#394,.T.);
#340=EDGE_CURVE('',#383,#393,#395,.T.);
#341=FILL_AREA_STYLE('',(#396));
#342=EDGE_CURVE('',#391,#389,#397,.T.);
#343=FILL_AREA_STYLE('',(#398));
#344=EDGE_CURVE('',#393,#382,#399,.T.);
#345=FILL_AREA_STYLE('',(#400));
#346=DIRECTION('',(0.0,-1.0,0.0));
#347=DIRECTION('',(-6.12323399573677E-17,0.0,1.0));
#348=DIRECTION('',(-4.32978028117542E-17,-0.707106781186883,0.707106781186213));
#349=DIRECTION('',(0.0,-1.0,0.0));
#350=DIRECTION('',(6.12323399573677E-17,0.0,-1.0));
#351=DIRECTION('',(0.0,1.0,0.0));
#352=DIRECTION('',(-6.12323399573677E-17,2.8421709430404E-14,1.0));
#353=FILL_AREA_STYLE_COLOUR('',#401);
#354=VERTEX_POINT('',#402);
#355=VERTEX_POINT('',#403);
#356=LINE('',#404,#405);
#357=VERTEX_POINT('',#406);
#358=CIRCLE('',#407,3.00000000000023);
#359=VERTEX_POINT('',#408);
#360=LINE('',#409,#410);
#361=CIRCLE('',#411,3.0000000000002);
#362=FILL_AREA_STYLE_COLOUR('',#412);
#363=VERTEX_POINT('',#413);
#364=LINE('',#414,#415);
#365=VERTEX_POINT('',#416);
#366=CIRCLE('',#417,2.52000000000021);
#367=LINE('',#418,#419);
#368=FILL_AREA_STYLE_COLOUR('',#420);
#369=CIRCLE('',#421,3.0000000000002);
#370=FILL_AREA_STYLE_COLOUR('',#422);
#371=CIRCLE('',#423,2.52000000000021);
#372=FILL_AREA_STYLE_COLOUR('',#424);
#373=CIRCLE('',#425,3.00000000000023);
#374=FILL_AREA_STYLE_COLOUR('',#426);
#375=CARTESIAN_POINT('',(1.10218211923262E-15,2.22044604925031E-16,-18.0));
#376=DIRECTION('',(1.0,0.0,6.12323399573677E-17));
#377=DIRECTION('',(4.32978028117751E-17,0.707106781186541,-0.707106781186554));
#378=DIRECTION('',(-6.12323399573677E-17,1.42108547152019E-14,1.0));
#379=DIRECTION('',(0.0,-1.0,0.0));
#380=DIRECTION('',(6.12323399573677E-17,0.0,-1.0));
#381=FILL_AREA_STYLE_COLOUR('',#427);
#382=VERTEX_POINT('',#428);
#383=VERTEX_POINT('',#429);
#384=CIRCLE('',#430,3.0);
#385=VERTEX_POINT('',#431);
#386=CIRCLE('',#432,3.0);
#387=CIRCLE('',#433,3.0);
#388=FILL_AREA_STYLE_COLOUR('',#434);
#389=VERTEX_POINT('',#435);
#390=LINE('',#436,#437);
#391=VERTEX_POINT('',#438);
#392=CIRCLE('',#439,3.0000000000002);
#393=VERTEX_POINT('',#440);
#394=LINE('',#441,#442);
#395=CIRCLE('',#443,3.0);
#396=FILL_AREA_STYLE_COLOUR('',#444);
#397=CIRCLE('',#445,3.0000000000002);
#398=FILL_AREA_STYLE_COLOUR('',#446);
#399=CIRCLE('',#447,3.0);
#400=FILL_AREA_STYLE_COLOUR('',#448);
#401=COLOUR_RGB('',0.498039215803146,0.498039215803146,0.498039215803146);
#402=CARTESIAN_POINT('',(-2.17497271528573E-15,3.00000000000023,35.5200000000004));
#403=CARTESIAN_POINT('',(2.44929359829471E-16,3.0000000000002,-4.0));
#404=CARTESIAN_POINT('',(-1.33241571747236E-15,3.00000000000021,15.7600000000002));
#405=VECTOR('',#449,1.0);
#406=CARTESIAN_POINT('',(-1.80757867554149E-15,-3.00000000000023,35.5200000000004));
#407=AXIS2_PLACEMENT_3D('',#450,#451,#452);
#408=CARTESIAN_POINT('',(6.12323399573701E-16,-3.0000000000002,-4.0));
#409=CARTESIAN_POINT('',(-5.97627637983896E-16,-3.00000000000021,15.7600000000002));
#410=VECTOR('',#453,1.0);
#411=AXIS2_PLACEMENT_3D('',#454,#455,#456);
#412=COLOUR_RGB('',0.498039215803146,0.498039215803146,0.498039215803146);
#413=CARTESIAN_POINT('',(-2.20436423846524E-15,2.52000000000021,36.0));
#414=CARTESIAN_POINT('',(-2.52767099344018E-15,2.76000000000022,35.7600000000002));
#415=VECTOR('',#457,1.0);
#416=CARTESIAN_POINT('',(-1.89575324508008E-15,-2.52000000000021,36.0));
#417=AXIS2_PLACEMENT_3D('',#458,#459,#460);
#418=CARTESIAN_POINT('',(-1.85166596031079E-15,-2.76000000000022,35.7600000000002));
#419=VECTOR('',#461,1.0);
#420=COLOUR_RGB('',0.498039215803146,0.498039215803146,0.498039215803146);
#421=AXIS2_PLACEMENT_3D('',#462,#463,#464);
#422=COLOUR_RGB('',0.498039215803146,0.498039215803146,0.498039215803146);
#423=AXIS2_PLACEMENT_3D('',#465,#466,#467);
#424=COLOUR_RGB('',0.498039215803146,0.498039215803146,0.498039215803146);
#425=AXIS2_PLACEMENT_3D('',#468,#469,#470);
#426=COLOUR_RGB('',0.498039215803146,0.498039215803146,0.498039215803146);
#427=COLOUR_RGB('',0.800000011920929,0.800000011920929,0.800000011920929);
#428=CARTESIAN_POINT('',(-3.0,-6.96131109604808E-30,-18.0000000000001));
#429=CARTESIAN_POINT('',(3.0,-6.96131109604808E-30,-18.0000000000001));
#430=AXIS2_PLACEMENT_3D('',#471,#472,#473);
#431=CARTESIAN_POINT('',(1.10218211923262E-15,3.0,-18.0000000000001));
#432=AXIS2_PLACEMENT_3D('',#474,#475,#476);
#433=AXIS2_PLACEMENT_3D('',#477,#478,#479);
#434=COLOUR_RGB('',0.800000011920929,0.800000011920929,0.800000011920929);
#435=CARTESIAN_POINT('',(2.44929359829471E-16,3.0000000000002,-4.0));
#436=CARTESIAN_POINT('',(3.06161699786828E-16,3.0000000000001,-11.0));
#437=VECTOR('',#480,1.0);
#438=CARTESIAN_POINT('',(6.12323399573701E-16,-3.0000000000002,-4.0));
#439=AXIS2_PLACEMENT_3D('',#481,#482,#483);
#440=CARTESIAN_POINT('',(1.46957615897683E-15,-3.0,-18.0000000000001));
#441=CARTESIAN_POINT('',(1.04094977927526E-15,-3.0000000000001,-11.0));
#442=VECTOR('',#484,1.0);
#443=AXIS2_PLACEMENT_3D('',#485,#486,#487);
#444=COLOUR_RGB('',0.800000011920929,0.800000011920929,0.800000011920929);
#445=AXIS2_PLACEMENT_3D('',#488,#489,#490);
#446=COLOUR_RGB('',0.800000011920929,0.800000011920929,0.800000011920929);
#447=AXIS2_PLACEMENT_3D('',#491,#492,#493);
#448=COLOUR_RGB('',0.800000011920929,0.800000011920929,0.800000011920929);
#449=DIRECTION('',(6.12323399573677E-17,0.0,-1.0));
#450=CARTESIAN_POINT('',(-2.17497271528573E-15,0.0,35.5200000000004));
#451=DIRECTION('',(6.12323399573677E-17,0.0,-1.0));
#452=DIRECTION('',(0.0,1.0,0.0));
#453=DIRECTION('',(-6.12323399573677E-17,-0.0,1.0));
#454=CARTESIAN_POINT('',(2.44929359829471E-16,0.0,-4.0));
#455=DIRECTION('',(6.12323399573677E-17,0.0,-1.0));
#456=DIRECTION('',(0.0,1.0,0.0));
#457=DIRECTION('',(-4.32978028118362E-17,0.707106781186883,-0.707106781186213));
#458=CARTESIAN_POINT('',(-2.20436423846524E-15,0.0,36.0));
#459=DIRECTION('',(6.12323399573677E-17,0.0,-1.0));
#460=DIRECTION('',(0.0,1.0,0.0));
#461=DIRECTION('',(-1.29893408435344E-16,0.707106781186883,0.707106781186213));
#462=CARTESIAN_POINT('',(2.44929359829471E-16,0.0,-4.0));
#463=DIRECTION('',(6.12323399573677E-17,0.0,-1.0));
#464=DIRECTION('',(0.0,1.0,0.0));
#465=CARTESIAN_POINT('',(-2.20436423846524E-15,0.0,36.0));
#466=DIRECTION('',(6.12323399573677E-17,0.0,-1.0));
#467=DIRECTION('',(0.0,1.0,0.0));
#468=CARTESIAN_POINT('',(-2.17497271528573E-15,0.0,35.5200000000004));
#469=DIRECTION('',(6.12323399573677E-17,0.0,-1.0));
#470=DIRECTION('',(0.0,1.0,0.0));
#471=CARTESIAN_POINT('',(1.10218211923262E-15,0.0,-18.0));
#472=DIRECTION('',(-7.49879891330929E-33,-1.0,1.22464679914735E-16));
#473=DIRECTION('',(0.0,1.22464679914735E-16,1.0));
#474=CARTESIAN_POINT('',(1.10218211923262E-15,0.0,-18.0000000000001));
#475=DIRECTION('',(6.12323399573676E-17,0.0,-1.0));
#476=DIRECTION('',(0.0,1.0,0.0));
#477=CARTESIAN_POINT('',(1.10218211923262E-15,0.0,-18.0000000000001));
#478=DIRECTION('',(6.12323399573676E-17,0.0,-1.0));
#479=DIRECTION('',(0.0,1.0,0.0));
#480=DIRECTION('',(6.12323399573677E-17,0.0,-1.0));
#481=CARTESIAN_POINT('',(2.44929359829471E-16,0.0,-4.0));
#482=DIRECTION('',(6.12323399573677E-17,0.0,-1.0));
#483=DIRECTION('',(0.0,1.0,0.0));
#484=DIRECTION('',(-6.12323399573677E-17,-0.0,1.0));
#485=CARTESIAN_POINT('',(1.10218211923262E-15,0.0,-18.0000000000001));
#486=DIRECTION('',(6.12323399573676E-17,0.0,-1.0));
#487=DIRECTION('',(0.0,1.0,0.0));
#488=CARTESIAN_POINT('',(2.44929359829471E-16,0.0,-4.0));
#489=DIRECTION('',(6.12323399573677E-17,0.0,-1.0));
#490=DIRECTION('',(0.0,1.0,0.0));
#491=CARTESIAN_POINT('',(1.10218211923262E-15,0.0,-18.0000000000001));
#492=DIRECTION('',(6.12323399573676E-17,0.0,-1.0));
#493=DIRECTION('',(0.0,1.0,0.0));
#494=DIRECTION('',(0.0,0.0,1.0));
#495=DIRECTION('',(1.0,0.0,0.0));
#496=CARTESIAN_POINT('',(0.0,0.0,36.000000));
#497=AXIS2_PLACEMENT_3D('PCS', #496,#494,#495);
#498=CARTESIAN_POINT('',(0.0,0.0,0.000000));
#499=AXIS2_PLACEMENT_3D('MCS', #498,#494,#495);
#500=CARTESIAN_POINT('',(0.0,0.0,-21.000000));
#501=AXIS2_PLACEMENT_3D('CIP', #500,#494,#495);
ENDSEC;
END-ISO-10303-21;
